Cifra Club

Webs We Weave

Escape The Fate

Cifra: Principal (violão e guitarra)
tom: C
This Song Is On Myspace if you haven't heard it
From there new cd "Dying is your latest fashion"
If you think this tab sucks Oh well Don't worry 
Someone will send in the Perfect tab

Tabbed By:Mitch Craig

Tuning:Drop C

Intro Guitar 1
|-------------------------------------------|
|-------888888-777-88--------888888-777-88--|
|-------xxxxxx-xxx-xx--------xxxxxx-xxx-xx--|
|---2~2-555555-444-55----2~2-555555-444-55--|
|-2-2~2----------------2-2~2----------------|
|-2-2~2----------------2-2~2----------------|
  .                    .
|---------------------------------------|
|-888888-777-88-8p7---888888-101010-77--|
|-xxxxxx-xxx-xx----7--xxxxxx-x-x-x--xx--|
|-555555-444-55-------555555-7-7-7--44--|
|---------------------------------------|
|---------------------------------------|

|-------------------------------------------|
|-------888888-777-88--------888888-777-88--|
|-------xxxxxx-xxx-xx--------xxxxxx-xxx-xx--|
|---2~2-555555-444-55----2~2-555555-444-55--|
|-2-2~2----------------2-2~2----------------|
|-2-2~2----------------2-2~2----------------|
  .                    .`
|---------------------------------------|
|-888888-777-88-8p7---888888-101010-77--|
|-xxxxxx-xxx-xx----7--xxxxxx-x-x-x--xx--|
|-555555-444-55-------555555-7-7-7--44--|
|---------------------------------------|
|---------------------------------------|

Verse
|--------------------------5555----------------------------------------------|
|-------5555-7777-8888----------8888-7777------5555-7777-8888----------------|
|----------------------------------------------------------------------------|
|---2~2----------------2~2-----------------5~5----------------5~5~55x4~4~44--|2x
|-2-2~2----------------2~2-----------------5~5----------------5~5~55x4~4~44--|
|-2-2~2----------------2~2-----------------5~5----------------5~5~55x4~4~44--|
  .                    
Pre-Chorus
|------------------------------------------------------------|
|-555-555-555-555-777-777-777-777-555-555-555-555------------|
|-xxx-xxx-xxx-xxx-xxx-xxx-xxx-xxx-xxx-xxx-xxx-xxx------------|
|-222-222-222-222-444-444-444-444-222-222-222-222-1~~~~-5-4--|
|-------------------------------------------------1~~~~-5-4--|
|-------------------------------------------------1~~~~-5-4--|

Chorus
|-------------------------------------------|
|-------888888-777-88--------888888-777-88--|
|-------xxxxxx-xxx-xx--------xxxxxx-xxx-xx--|
|---2~2-555555-444-55----2~2-555555-444-55--|
|-2-2~2----------------2-2~2----------------|
|-2-2~2----------------2-2~2----------------|
  .                    .
|---------------------------------------|
|-888888-777-88-8p7---888888-101010-77--|
|-xxxxxx-xxx-xx----7--xxxxxx-x-x-x--xx--|
|-555555-444-55-------555555-7-7-7--44--|
|---------------------------------------|
|---------------------------------------|

|-------------------------------------------|
|-------888888-777-88--------888888-777-88--|
|-------xxxxxx-xxx-xx--------xxxxxx-xxx-xx--|
|---2~2-555555-444-55----2~2-555555-444-55--|
|-2-2~2----------------2-2~2----------------|
|-2-2~2----------------2-2~2----------------|
  .                    .
|---------------------------------------|
|-888888-777-88-8p7---888888-101010-77--|
|-xxxxxx-xxx-xx----7--xxxxxx-x-x-x--xx--|
|-555555-444-55-------555555-7-7-7--44--|
|---------------------------------------|
|---------------------------------------|

I have No Idea about this part.. 
|-14b-14b--|
|-17b-17b--|
|----------|Last 2 notes of the crazy harmony stuff
|----------|
|----------|
|----------|

Verse
|--------------------------5555----------------------------------------------|
|-------5555-7777-8888----------8888-7777------5555-7777-8888----------------|
|----------------------------------------------------------------------------|
|---2~2----------------2~2-----------------5~5----------------5~5~55x4~4~44--|2x
|-2-2~2----------------2~2-----------------5~5----------------5~5~55x4~4~44--|
|-2-2~2----------------2~2-----------------5~5----------------5~5~55x4~4~44--|
  .                    
  .                    
  
Pre-Chorus
|------------------------------------------------------------|
|-555-555-555-555-777-777-777-777-555-555-555-555------------|
|-xxx-xxx-xxx-xxx-xxx-xxx-xxx-xxx-xxx-xxx-xxx-xxx------------|
|-222-222-222-222-444-444-444-444-222-222-222-222-1~~~~-5-4--|
|-------------------------------------------------1~~~~-5-4--|
|-------------------------------------------------1~~~~-5-4--|

Chorus
|-------------------------------------------|
|-------888888-777-88--------888888-777-88--|
|-------xxxxxx-xxx-xx--------xxxxxx-xxx-xx--|
|---2~2-555555-444-55----2~2-555555-444-55--|
|-2-2~2----------------2-2~2----------------|
|-2-2~2----------------2-2~2----------------|
  .                    .
|---------------------------------------|
|-888888-777-88-8p7---888888-101010-77--|
|-xxxxxx-xxx-xx----7--xxxxxx-x-x-x--xx--|
|-555555-444-55-------555555-7-7-7--44--|
|---------------------------------------|
|---------------------------------------|

|-------------------------------------------|
|-------888888-777-88--------888888-777-88--|
|-------xxxxxx-xxx-xx--------xxxxxx-xxx-xx--|
|---2~2-555555-444-55----2~2-555555-444-55--|
|-2-2~2----------------2-2~2----------------|
|-2-2~2----------------2-2~2----------------|
  .                    .
|---------------------------------------|
|-888888-777-88-8p7---888888-101010-77--|
|-xxxxxx-xxx-xx----7--xxxxxx-x-x-x--xx--|
|-555555-444-55-------555555-7-7-7--44--|
|---------------------------------------|
|---------------------------------------|

Im not sure about this part... Its weird too Lol I cant get the right rythm its somewhere here
|------------------------|
|-5-7-8-7-8-10-7-8-7-12--|12's are tap ons with right hand
|------------------------|
|------------------------|
|------------------------|
|------------------------|

Chorus
|-----------------------------------------------------------|
|---------------------888888-777-88----------888888-777-88--|
|---------------------xxxxxx-xxx-xx----------xxxxxx-xxx-xx--|
|---2~2-------2~2-----555555-444-55-----~2-2-555555-444-55--|
|-2-2~2-----2-2~2--2-------------------2-2~2----------------|
|-2-2~2-----2-2~2--2-------------------2-2~2----------------|
  .         .                          .
|---------------------------------------|
|-888888-777-88-8p7---888888-101010-77--|
|-xxxxxx-xxx-xx----7--xxxxxx-x-x-x--xx--|
|-555555-444-55-------555555-7-7-7--44--|
|---------------------------------------|
|---------------------------------------|

|-------------------------------------------|
|-------888888-777-88--------888888-777-88--|
|-------xxxxxx-xxx-xx--------xxxxxx-xxx-xx--|
|---2~2-555555-444-55----2~2-555555-444-55--|
|-2-2~2----------------2-2~2----------------|
|-2-2~2----------------2-2~2----------------|

|---------------------------------------|
|-888888-777-88-8p7---888888-101010-77--|
|-xxxxxx-xxx-xx----7--xxxxxx-x-x-x--xx--|
|-555555-444-55-------555555-7-7-7--44--|
|---------------------------------------|
|---------------------------------------|

|-----------------|
|-----------------|
|-----------------|
|---2~2---2-------|
|-2-2~2-2-2-------|
|-2-2~2-2-2-2v~\--|
  .     .





Composição de Escape the Fate
1.886 exibições
    • ½ Tom
    • A
    • Bb
    • B
    • C
    • Db
    • D
    • Eb
    • E
    • F
    • F#
    • G
    • Ab
  • Adicionar à lista

    0 comentários

    Ver todos os comentários

    Conseguiu tocar?

    1 Tocaram 0 Ainda não

    Grave um vídeo tocando Webs We Weave e nos envie!

    00:00 / 00:00
    Outros vídeos desta música
    Repetir Qualidade Automático
    Outros vídeos desta música
    00:00 / 00:00
    Automático

    Cifra Club Pro

    Aproveite o Cifra Club com benefícios exclusivos e sem anúncios
    Cifra Club Pro
    Aproveite o Cifra Club com benefícios exclusivos e sem anúncios
    OK