Cifra Club

Tango Novo

Esteban Tavares

Cifra: Principal (violão e guitarra)
tom: Bb
Intro: Gm  Cm    D7  Gm (2x)

    Gm
Solidão
                Cm
Chegou e eu não vi entrar
             D7
Aonde esta você?
               Gm
Aonde isso vai te levar?

Gm
Clareou
            Cm
E eu ainda não dormi
              D7
Esperando por um sinal
                 Gm       (G7)
Pra que eu possa te ouvir

              Cm           F
Saiba que é difícil não te ver
     Bb           Gm
E matar pra não morrer
    Cm          D7
Meu amor irracional

A passagem que ele faz:
E|-----------------------------------------------------
B|-----------------------------------------------------
G|-----------------------------------------------------
D|-----------------------------------------------------
A|--5/6----3/5-----------------------------------------
E|----------------6/8-----5/6----3~~~~-----------------

   Gm
Deixa        
                Cm
No mar, essa tristeza
           D7
Afoga tua dor
                Gm     (D7)
Pra aliviar teu coração

   Gm
O Sol
                 Cm
Se vai no fim do dia
                     D7
Mas posso ser o teu farol
                  Gm    (G7)
Pra te guiar na escuridão

              Cm          F
Sei que não é fácil se perder
D7                Gm
E viver só por viver
     Cm         D7
Tudo isso te faz mal
 
      Gm
Vai doer
       Cm
Vai durar
D7           D            Gm
Nada impede a onda de passar

        Gm
Vai sofrer
         Cm
Vai chorar
D7          D             Gm
Nada impede a onda de passar

        Cm      F
Vai partir
        Gm
Vai voltar
Cm            D7
Vai morrer por amar

E|-------------------------------------------3------------
B|-------------------------------------------3------------
G|-------------------------------------------3------------
D|-------------------------------------------5------------
A|--5/6----3/5-------------------------------5------------
E|----------------6/8-----5/6----3~~~~-------3------------

Gm

(A4/F F7M)
Amanhã eu estarei de partida
Deixo minhas velas soltas no ar
Quem manda no meu caminho é o vento
Quem dita o meu destino é o mar

(A4/F F7M)
Viajando sem salva-vidas
Navegando na contra-mão
Vou contando as estrelas no céu
Procurando o horizonte, o chão

(A4/F F7M)
Amanhã eu estarei de partida
Deixo minhas velas soltas no ar
Quem manda no meu caminho é o vento
Quem dita o meu destino é o mar

(A4/F F7M)
Viajando sem salva-vidas
Navegando na contra-mão
Vou contando as estrelas no céu
Procurando no horizonte, o chão

(A4/F F7M)
Composição de Rodrigo Tavares / Tay Galega
Colaboração e revisão:
  • Iago Portilho
  • Rodolpho Albanez
13.536 exibições
    • ½ Tom
    • A
    • Bb
    • B
    • C
    • Db
    • D
    • Eb
    • E
    • F
    • F#
    • G
    • Ab
  • Adicionar à lista

    0 comentários

    Ver todos os comentários

    Conseguiu tocar?

    9 Tocaram 1 Ainda não

    Grave um vídeo tocando Tango Novo e nos envie!

    00:00 / 00:00
    Outros vídeos desta música
    Repetir Qualidade Automático
    Outros vídeos desta música
    00:00 / 00:00
    Automático

    Cifra Club Pro

    Aproveite o Cifra Club com benefícios exclusivos e sem anúncios
    Cifra Club Pro
    Aproveite o Cifra Club com benefícios exclusivos e sem anúncios
    OK