Cifra Club

BOLA DA VEZ

Evandro Cordeiro

Cifra: Principal (violão e guitarra)
tom: E
(intro) A B E G# C#m  C#m B A B

E|---5--7----
B|--------5--
G|-----------

E|------------------------------------7p9-7--------------
B|---7p9-5p7-5--5-5---5-7p9-5--5-5----------7p9-7--------
G|------------------6--------------6--------------8-6-4--
D|-------------------------------------------------------
A|-------------------------------------------------------
E|-------------------------------------------------------

E                      C#m
Chega toda melosa logo da uma piscadinha,
        F#m          A      F#m           B
E ainda fala que e difícil, fala que fala não
E                       C#m                          F#m      A
Pra fazer o teste fui logo metendo a cara pensei não vai recusar
F#m              A            B
Eu sou a bola da vez vai me pegar

  A                                B                         E
* Virou as costas pra min e deu um fora e ainda disse do seu naipe
       G#               C#m    C#m  B
Eu não pego eu to indo embora
A                   B                        E
Abusada ainda reclamou, que eu fui logo levantando
         G#          C#m                      A
E nem paguei nem o jantar, que ainda quero te conquistar
                      B
Olhou pra min disse querido, assim não da

(refrão)
                E                       G#
To de cara no chão me sinto um carro na contra mão
           A               F#m                 A
Estou deslocado fora do lugar, se você não me quis
               B
Quem vai me olhar
                  E                       G#
To me sentido tão veio, me sinto como um caminhão sem freio
         A                  F#m
Estou passando por cima de tudo,
             A               B                    E   B  A
Você não me quis mais que absurdo, mais que absurdo

(solo) E G#m C#m  C#m B A B G# A

E|---5--7----
B|--------5--
G|-----------

E|------------------------------------7p9-7--------------7-4-5--
B|---7p9-5p7-5--5-5---5-7p9-5--5-5----------7p9-7---------------
G|------------------6--------------6--------------8-6-4---------
D|--------------------------------------------------------------
A|--------------------------------------------------------------
E|--------------------------------------------------------------
Composição de EVANDRO CORDEIRO
Colaboração e revisão:
  • rollander sa
341 exibições
    • ½ Tom
    • A
    • Bb
    • B
    • C
    • Db
    • D
    • Eb
    • E
    • F
    • F#
    • G
    • Ab
  • Adicionar à lista

    0 comentários

    Ver todos os comentários

    Conseguiu tocar?

    0 Tocaram 0 Ainda não

    Grave um vídeo tocando BOLA DA VEZ e nos envie!

    00:00 / 00:00
    Outros vídeos desta música
    Repetir Qualidade Automático
    Outros vídeos desta música
    00:00 / 00:00
    Automático

    Cifra Club Pro

    Aproveite o Cifra Club com benefícios exclusivos e sem anúncios
    Cifra Club Pro
    Aproveite o Cifra Club com benefícios exclusivos e sem anúncios
    OK