Cifra Club

Think Twice

Eve 6

Cifra: Principal (violão e guitarra)
Tom: F#
Tuning:EADGBe

Intro
Gtr 1
e-11-14-------11-11-14----------
B-------12-14----------12-14----
G----------------------------13-        1X Clean with vibrato or
D-------------------------------        tremolo or a light reverb          
A-------------------------------
E-------------------------------

Gtr 2
 G#5   E5   B5  F#5 
e-------------------------------
B-------------------------------
G-----------4-------------------        1x Palm Muted with light 
D-6----2----4-8x-4--------------        distortion
A-6-8x-2-8x-2----4-8x-----------
E-4----0---------2--------------


(G#5-E5-B5-F#5) 
When all is said and done
And dead does he love you
The way that I do                       Can use the gtr 2 intro riff
Breathing in lighting
Tonight's for fighting
I feel the hurt so physical

Riff 1
e---------------------------------------------------------------------
B----------------------------------------------------4-(4)------------
G----------------4-(4)-6-(6)-4-(4)-------4-(4)-6-(6)-------6-(6)-4-(4)
D----------6-(6)-------------------6-(6)------------------------------
A----6-(6)------------------------------------------------------------
E*4*------------------------------------------------------------------

e----------------------------
B----------------------------
G-6-(6)-4-(4)----------------   4x with delay (the note *x* don't have fx and
D-------------6-(6)-4-(4)----   the (x) notes you play if you dont have delay) 
A----------------------------   gtr 2 makes the triad sequence:(G#5-E5-B5-F#5)
E----------------------------

Little thing :

e-------------
B-------------
G-------------          Play along the Riff 1
D---9/5-------
A---9/5-------
E-------------

(Riff 1)

Think twice before you touch my girl
Come around I'll let you feel the burn
Think twice before you touch my girl
Come around come around no more
Think twice before you touch my girl
Come around I'll let you feel the burn
Think twice before you touch my girl
Come around no more

Riff 2 (Chorus)
Gtr 1       3x                     1x
e------------------------|---------------------
B------------------------|---------------------
G---11---8---8-----------|-----11---8---8-8h9-8       Play with Distortion and High Gain 
D-9----9---9---11--------|---9--------9--------        the same for the triad sequence to 
A-----------------11-----|---------------------        gtr 2 (G#5-E5-B5-F#5)  
E------------------------|---------------------

Gtr 2 (option)
Palm muted, same time as Chorus

e-------------------------
B-------------------------
G-4-----4----4-----4------
D-4-----4----4-----4------
A------------2------------
E-4-----0----------2------


(Riff 2)
She spreads her love
She burns me up
I can't let go
I can't get out
I've said enough
Enough by now
I can't let go
I can't get out

[(G#5-E5-B5-F#5)Palm Muted]
Wait till the day you finally see
I've been here waiting patiently
Crossing my fingers and my t's
She cried on my shoulder begging please

(Riff 1)
Think twice before you touch my girl
Come around I'll let you feel the burn
Think twice before you touch my girl
Come around come around no more
Think twice before you touch my girl
Come around I'll let you feel the burn
Think twice before you touch my girl
Come around no more

(Riff 2)
She spreads her love
She burns me up
I can't let go
I can't get out
I've said enough
Enough by now
I can't let go
I can't get out

Bridge
e-----------------------------------------
B-----------------------------------------
G-7-7-7-7-7-7-7-7-------------------------
D-7-7-7-7-7-7-7-7-4-4-4-4-4-4-4-4-4-4--6~-
A-5-5-5-5-5-5-5-5-4-4-4-4-4-4-4-4-4-4--6~-
E-----------------2-2-2-2-2-2-2-2-2-2--4~-


(Bridge)
What is it you really want
I'm tired of asking
You're gone I'm wasted

Riff 3
e-------------------------
B-------------------------
G----4----4-----4-----4---      Now play the riff 3 with clean sound                    
D---4-4--4-4---4-4---4-4--
A------------2------------
E-4-----0----------2------

Now only the bass plays
(G#5-E5-B5-F#5)
When I showed up and he was there
I tried my best to grind and back
And took the stairs but didn't stop at the street              Repeat Intro Riff
And as we speak I'm going down

Now the guitar plays palm muted with heavy distortion           
(G#5-E5-B5-F#5)
Cause she spread her love
And burnt me up
I can't let go
I can't get out

(Riff 2 played only 1x each part)
I've said enough
Enough by now
I can't let go
I can't get out

(G#5-E5-B5-F#5-play it open with heavy distortion)

Think twice before you touch my girl
Come around I'll let you feel the burn
Think twice before you touch my girl
Come around come around no more
Think twice before you touch my girl
Come around I'll let you feel the burn
Think twice before you touch my girl
Come around no more

Ending Riff
e-------------
B-------------
G-------------
D-4-4--/0-----
A-4-4-/-0-----
E-2-2/--0-----
exibições 7.491
Acordes para:
    Composição: Jonathan Siebels / Max Collins / Tony Fagenson Colaboração e revisão:
    • Alan Bernardes

    0 comentários

    mostrar mais comentários

    Conseguiu tocar?

    0 tocaram 0 ainda não

    Grave um vídeo tocando Think Twice e mande pra gente!

    00:00 / 00:00
    outros vídeos desta música
    repetir qualidade Automático
    Outros vídeos desta música
    00:00 / 00:00
    Automático
    OK