Cifra Club

A Lesson In Violence

Exodus

Cifra: Principal (violão e guitarra)
Selo Cifra Club: esta cifra foi revisada para atender aos critérios oficiais da nossa Equipe de Qualidade.
tom: G
Riff 1 (2x)

E|--------------------------------------|
B|--------------------------------------|
G|--------------------------------------|
D|---4-----7--6--7----5-----------------|
A|---2-----5--4--5----3-----------------|
E|--------------------------------------|

E|--------------------------------------|
B|--------------------------------------|
G|--------------------------------------|
D|---4-----7--6--7----10----------------|
A|---2-----5--4--5----8-----------------|
E|--------------------------------------|

Riff 2 (2x)

E|--------------------------------------|
B|--------------------------------------|
G|--------------------------------------|
D|---4444444-----7--6--7----5-----------|
A|---2222222-----5--4--5----3-----------|
E|--------------------------------------|

E|--------------------------------------|
B|--------------------------------------|
G|--------------------------------------|
D|---4444444-----7--6--7----10----------|
A|---2222222-----5--4--5----8-----------|
E|--------------------------------------|

Riff 3 (2x)

E|--------------------------------------|
B|--------------------------------------|
G|--------------------------------------|
D|------------------------6--5----------|
A|---2222222-----7---6----4--3----5-----|
E|---0000000-----5---4------------3-----|

E|--------------------------------------|
B|--------------------------------------|
G|--------------------------------------|
D|------------------------7--7---9------|
A|---2222222-----7---6----5--5---7------|
E|---0000000-----5---4------------------|

Riff 4

E|--------------------------------------|
B|--------------------------------------|
G|--------------------------------------|
D|----------6--5------------------------|
A|---7--6---4--3--5--2------------------|
E|---5--4---------3--0------------------|

E|--------------------------------------|
B|--------------------------------------|
G|--------------------------------------|
D|---------6--5-------------------------|
A|---7--6--4--3--5--2-------------------|
E|---5--4--------3--0-------------------|

E|--------------------------------------|
B|--------------------------------------|
G|--------------------------------------| (~ = deixe soar a nota)
D|---------6--5-------------------------|
A|---7--6--4--3--5--2---4~--------------|
E|---5--4--------3--0---2~--------------|

Riff 2 (4x)

E|--------------------------------------|
B|--------------------------------------|
G|--------------------------------------|
D|---4444444-----7--6--7----5-----------|
A|---2222222-----5--4--5----3-----------|
E|--------------------------------------|

E|--------------------------------------|
B|--------------------------------------|
G|--------------------------------------|
D|---4444444-----7--6--7----10----------|
A|---2222222-----5--4--5----8-----------|
E|--------------------------------------|

Riff 3 (2x)

E|--------------------------------------|
B|--------------------------------------|
G|--------------------------------------|
D|------------------------6---5---------|
A|---2222222-----7---6----4---3----5----|
E|---0000000-----5---4-------------3----|

E|--------------------------------------|
B|--------------------------------------|
G|--------------------------------------|
D|------------------------7--7---9------|
A|---2222222-----7---6----5--5---7------|
E|---0000000-----5---4------------------|

Riff 4 (2x)

E|--------------------------------------|
B|--------------------------------------|
G|---------------------------------9----|
D|----10--9---7---10--10---9------------|
A|----8---7---5---8---8----7------------|
E|--------------------------------------|

E|--------------------------------------|
B|--------------------------------------|
G|--------------------------------------|
D|--------------------------------------|
A|---8----7----5----------------------2-|
E|-------------------6----5----3------0-|

Riff 3 (2x)

E|--------------------------------------|
B|--------------------------------------|
G|--------------------------------------|
D|------------------------6---5---------|
A|---2222222-----7---6----4---3----5----|
E|---0000000-----5---4-------------3----|

E|--------------------------------------|
B|--------------------------------------|
G|--------------------------------------|
D|------------------------7--7---9------|
A|---2222222-----7---6----5--5---7------|
E|---0000000-----5---4------------------|

Riff 4

E|--------------------------------------|
B|--------------------------------------|
G|--------------------------------------|
D|---------6--5-------------------------|
A|---7--6--4--3--5--2-------------------|
E|---5--4--------3--0-------------------|

E|--------------------------------------|
B|--------------------------------------|
G|--------------------------------------|
D|---------6--5-------------------------|
A|---7--6--4--3--5--2-------------------|
E|---5--4--------3--0-------------------|

E|--------------------------------------|
B|--------------------------------------|
G|--------------------------------------|
D|---------6--5-------------------------|
A|---7--6--4--3--5--2---4~--------------|
E|---5--4--------3--0---2~--------------|

Riff 2 (4x)

E|--------------------------------------|
B|--------------------------------------|
G|--------------------------------------|
D|---4444444-----7--6--7----5-----------|
A|---2222222-----5--4--5----3-----------|
E|--------------------------------------|

E|--------------------------------------|
B|--------------------------------------|
G|--------------------------------------|
D|---4444444-----7--6--7----10----------|
A|---2222222-----5--4--5----8-----------|
E|--------------------------------------|

Riff 3 (2x)

E|--------------------------------------|
B|--------------------------------------|
G|--------------------------------------|
D|------------------------6---5---------|
A|---2222222-----7---6----4---3----5----|
E|---0000000-----5---4-------------3----|

E|--------------------------------------|
B|--------------------------------------|
G|--------------------------------------|
D|------------------------7--7---9------|
A|---2222222-----7---6----5--5---7------|
E|---0000000-----5---4------------------|

Riff 4 (2x)

E|--------------------------------------|
B|--------------------------------------|
G|---------------------------------9----|
D|----10--9---7---10--10---9------------|
A|----8---7---5---8---8----7------------|
E|--------------------------------------|

E|--------------------------------------|
B|--------------------------------------|
G|--------------------------------------|
D|--------------------------------------|
A|---8----7----5----------------------2-|
E|-------------------6----5----3------0-|

Under solo:

Riff 5 (4x)

E|--------------------------------------|
B|--------------------------------------|
G|--------------------------------------|
D|-10--9---7---10--10---9---------------|
A|-8---7---5---8---8----7---------------|
E|------------------------0-0-0-0-0-0-0-|

E|--------------------------------------|
B|--------------------------------------|
G|--------------------------------------|
D|--------------------------------------|
A|-8--7--5----------------2-2-2-2-2-2-2-|
E|------------6--5--3-----0-0-0-0-0-0-0-|

Riff 6 (4x)

E|----------------------------------------------------|
B|----------------------------------------------------|
G|----------------------------------------------------|
D|--11-11-11-11-11-11-11---12-12-12----9-9-9/12-------|
A|--9--9--9--9--9--9--9----10-10-10----7-7-7/10-------|
E|----------------------------------------------------|

E|----------------------------------------------------|
B|----------------------------------------------------|
G|----------------------------------------------------|
D|-11-11-11-11-11-11-11-------------------------------|
A|--9--9---9--9---9--9---9----10--9--7----------------|
E|---------------------------------------9--8--7-----|

Riff 7

E|----------------------------------------------------------------------------------------------------|
B|----------------------------------------------------------------------------------------------------|
G|----------------------------------------------------------------------------------------------------|
D|--------------------7-7-7-7-7---9---7--6-6-6-6-6--11-11-11--9--7--6--6--6--6--6---------------------|
A|-5-5-5-5-4-4-4-4-4--5-5-5-5-5---7---5--4-4-4-4-4--9--9--9---7--5--4--4--4--4--4--5--7--9--4-4-4-4-4-|
E|-3-3-3-3-2-2-2-2-2---------------------------------------------------------------3--5--7--2-2-2-2-2-|

Riff 1 (2x)

E|-----------------------------------|
B|-----------------------------------|
G|-----------------------------------|
D|---4-----7--6--7----5--------------|
A|---2-----5--4--5----3--------------|
E|-----------------------------------|

E|-----------------------------------|
B|-----------------------------------|
G|-----------------------------------|
D|---4-----7--6--7----10-------------|
A|---2-----5--4--5----8--------------|
E|-----------------------------------|

Riff 3 (2x)

E|-----------------------------------|
B|-----------------------------------|
G|-----------------------------------|
D|----------------------6---5--------|
A|---2222222---7---6----4---3----5---|
E|---0000000---5---4-------------3---|

E|-----------------------------------|
B|-----------------------------------|
G|-----------------------------------|
D|----------------------7--7---9-----|
A|---2222222---7---6----5--5---7-----|
E|---0000000---5---4-----------------|
Outros vídeos desta música
    1.385 exibições
      • ½ Tom
      • A
      • Bb
      • B
      • C
      • Db
      • D
      • Eb
      • E
      • F
      • F#
      • G
      • Ab
    • Adicionar à lista

    Afinação da cifra

    Afinador online

      0 comentários

      Ver todos os comentários

      Entre para o Cifra Club PRO

      Tenha acesso a benefícios exclusivos no App e no Site

      • Chega de anúncios

      • Badges exclusivas

      • Mais recursos no app do Afinador

      • Atendimento Prioritário

      • Aumente seu limite de lista

      • Ajude a produzir mais conteúdo

      Cifra Club Pro

      Aproveite o Cifra Club com benefícios exclusivos e sem anúncios
      Cifra Club Pro
      Aproveite o Cifra Club com benefícios exclusivos e sem anúncios
      OK