Cifra Club

Play With Me

Extreme

Cifra: Versão 3 (violão e guitarra)
tom: A
                                                                       
D#||----------|--------------------|------------------12--------------|
A#||----------|--------------------|--13--15-13-12-13-----18-17-16-17-|
F#||----------|--------16-14-13-14-|----------------------------------|
C#||----------|--------------------|----------------------------------|
G#||----------|--------------------|----------------------------------|
D#||----------|--------------------|----------------------------------|


                                                                      
--19-17-16-17-19-17-16-17-20--17-19-|--20-19h20p19-17-16-17----------|
------------------------------------|-----------------------17-18----|
------------------------------------|-----------------------------19-|
------------------------------------|--------------------------------|
------------------------------------|--------------------------------|
------------------------------------|--------------------------------|


                                                                             
------------------------------22/-|-----------||----------x-|--x-x-x-------||
------------------------------22/-|-----------||----------x-|--x-x-x-------||
--17-19-17-19-16-17-16-17-14------|-----------||*---------x-|--x-x-x------*||
----------------------------------|-----------||*---------x-|--x-x-x------*||
----------------------------------|-----------||----------x-|--x-x-x-------||
----------------------------------|-----------||----------x-|--x-x-x-------||


                                                                   
----------|-----x-----x--|----x---x---x--------|------------------|
----------|-----x-----x--|----x---x---x--------|------------------|
----------|-----x-----x--|----x---x---x--------|------------------|
----------|-----x-----x--|----x---x---x--------|------------------|
----------|-----x-----x--|--------------x-12/5-|------------0-1-2-|
----------|--x-----x-----|--x---x---x---x-12/5-|--0-1-2-3-4-------|


                                                                
------------------|----------------|------------|--------------|
------------------|----------------|------------|--------------|
------------------|--------12------|--5/-----0--|--2-----------|
------0-1-2-3-4-5-|----12------12--|--5/-----0--|--2--5--4--5--|
--3-4-----------5-|----------------|------------|--0-----------|
------------------|----------------|------------|--------------|


                                                                    
------------------|--------------|-----------------|---------------|
------------------|--------------|-----------------|---------------|
--2-2-------------|--2-----------|--2--------------|--2-2----------|
--2-2-4---5---4---|--2--5--4--5--|--2-----2-5-2-4--|--2-2-5--4--5--|
--0-0---0---0---0-|--0-----------|--0-4-5----------|--0-0----------|
------------------|--------------|-----------------|---------------|


                                                                        
-----------------|---------------|------------------|------------------|
-----------------|---------------|------------------|------------------|
--2--2-----------|--2-2----------|--2-2-------------|------------------|
--2----4-2-4-2-5-|--2-2-5--4--5--|--2---4-2-5-------|--5-5-7-5-8-5-7-5-|
--0------0-------|--0-0----------|--0---------0-1-2-|--3-3-3-3-3-3-3-3-|
-----------------|---------------|------------------|------------------|


                                                                       
------------------|------------------|---0----0-0---|-----------------|
------------------|------------------|---0----0-0---|-----------------|
------------------|--4-------4-------|---1----1-1---|--2--------------|
--5-5-7-5-----5-7-|--4-------4-------|--------------|--2-2-4-2-5-2-4--|
--3-3-3-3-6-7-3-3-|--2-2-2-2-2-----2-|--------------|--0--------------|
------------------|------------3-2-0-|------0-------|-----------------|


                                                                       
---------------|------------------|-----------------|-----------------|
---------------|------------------|-----------------|-----------------|
--2-2----------|--2---------------|--2--------------|--2-2------------|
--2-2-4--5--4--|--2-2-4-2-5-2-4-2-|--2-----2-5-2-4--|--2-2-4-2-5-2-4--|
--0-0----------|--0---------------|--0-4-5----------|--0-0------------|
---------------|------------------|-----------------|-----------------|


                                                                
-----------------|---------------|----------|------------------|
-----------------|---------------|----------|------------------|
--2--2-----------|--2-2----------|----------|------------------|
--2----4-2-4-2-5-|--2-2----4--5--|----------|--5-5-7-5-8-5-7-5-|
--0------0-------|--0-0-1--2--3--|----------|--3-3-3-3-3-3-3-3-|
-----------------|---------------|----------|------------------|


                                                                        
------------------|------------------|---0----0-0---|------------------|
------------------|------------------|---0----0-0---|------------------|
------------------|--4-------4-------|---1----1-1---|------------------|
--5-5-7-5-----5-7-|--4-------4-------|--------------|------------------|
--3-3-3-3-6-7-3-3-|--2-2-2-2-2-----2-|--------------|--------2-1-2-5-4-|
------------------|------------3-2-0-|------0-------|--3-2-3-----------|


                                                                       
-----------------|------------------|-----------------|---------5-----|
-----------------|--3-2-0-3-2-0-3-2-|--0-3-2-0-3-2-0--|---------5-----|
----------4-3-4--|--3-2-0-3-2-0-3-2-|--0-3-2-0-3-2-0--|--7---2--------|
----5-4-5--------|--3-2-0-3-2-0-3-2-|--0-3-2-0-3-2-0--|--7---2--------|
--5--------------|------------------|-----------------|--5---0----0-0-|
-----------------|------------------|-----------------|---------------|


                                                                    
------------------|---------5-----|------------------|-------------|
------------------|---------5-----|------------------|-------------|
------------------|--5---2--------|------------------|--3---2--2---|
------------------|--5---2--------|------------------|--3---2--2---|
--0-0-0-0-0-0-0-0-|--3---0----0-0-|--0-0-0-0-0-0-0-0-|--1---0--0---|
------------------|---------------|------------------|-------------|


                                                                   
-----------------|---------------|----------------|---------------|
-----------------|---------------|----------------|---------------|
--4r-2-----------|---------------|----------------|--7---2--------|
-------4-2-------|--2-2-----2----|--2-2-----2-2---|--7---2--------|
-----------3b0---|--0-0-----0----|--0-0-----0-0---|--5---0--0-0-0-|
---------------3-|------2-0------|------2-0-------|---------------|


                                                                             
--7-8-8-8-8-8-8-9-9-9-9-9-|---------------|----------------|----------------|
--6-7-7-7-7-7-7-8-8-8-8-8-|---------------|--3---3-5-------|----------------|
--7-8-8-8-8-8-8-9-9-9-9-9-|--5---2------5-|----5-----4b2~--|--3--3-3-2-2-2--|
--------------------------|--5---2--------|----------------|--3--3-3-2-2-2--|
--------------------------|--3---0--0-0---|----------------|--1--1-1-0-0-0--|
--------------------------|---------------|----------------|----------------|


                                                                    
-----------------|----------------|--------------------------------|
-----------------|----------------|--------------------------------|
--4r-2-12b-12b9--|--9b9r7-4b-7b7b-|--4-2-4-2-0-0-2-0---------------|
-----------------|----------------|------------------4-2-0---------|
-----------------|----------------|------------------------4-2-0---|
-----------------|----------------|------------------------------4b|


                                                                        
-----------------|-----------------|-----------------|-----------------|
-----------------|-----------------|-----------------|-----------------|
--2-2------------|--2-2------------|--2-2------------|--2--------------|
--2-2-4-2-5-2-4--|--2-2-4-2-5-2-4--|--2-2-4-2-5-2-4--|--2-----2-5-2-4--|
--0-0-x-x-x-x-x--|--0-0-x-x-x-x-x--|--0-0-x-x-x-x-x--|--0-3-4-x-x-x-x--|
-----------------|-----------------|-----------------|-----------------|


                                                                      
-----------------|-----------------|-----5-----5--|------------------|
-----------------|-----------------|-----5-----5--|------------------|
--2-2------------|--2-2------------|--2--2--2--2--|------------------|
--2-2-4-2-5-2-4--|--2-2-4-2-5-2-4--|--2-----2-----|--2-2-2-2-2-------|
--0-0-x-x-x-x-x--|--0-0-x-x-x-x-x--|--0-----0-----|--0-0-0-0-0-0-1-2-|
-----------------|-----------------|--------------|------------------|


                                                                        
------------------|------------------|------------------|---0----0-0---|
------------------|------------------|------------------|---0----0-0---|
------------------|------------------|--4-------4-------|---1----1-1---|
--5-5-7-5-8-5-7-5-|--5-5-7-5-----5-7-|--4-------4-------|--------------|
--3-3-3-3-3-3-3-3-|--3-3-3-3-6-7-3-3-|--2-2-2-2-2-------|--------------|
------------------|------------------|------------3-2-0-|------0-------|


                                                                   
----------------5-|---5-----------5-|---5--------5-|---5--------5-|
----------------5-|---5-----------5-|---5--------5-|---5--------5-|
--2-2-----2-5-6---|-----------5-6---|--------5-6---|--------5-6---|
--2-2-----2-------|---------2-------|--------------|--------------|
--0-0-3-4---------|-----3-4---------|--------------|--------------|
------------------|-----------------|--------------|--------------|


                                                                                
---5--------5-|---5--------5-|--5---5---5---5---|-----------|------------------|
---5--------5-|---5--------5-|--5-5-5-5-5-5-5-5-|--5r-------|------------------|
--------5-6---|--------5-6---|--5-5-5-5-5-5-5-5-|-----------|------------------|
--------------|--------------|------------------|-----------|--5-5-7-5-8-5-7-5-|
--------------|--------------|------------------|-----------|--3-3-3-3-3-3-3-3-|
--------------|--------------|------------------|-----------|------------------|


                                                                        
------------------|------------------|---0----0-0---|------------------|
------------------|------------------|---0----0-0---|------------------|
------------------|--4-------4-------|---1----1-1---|------------------|
--5-5-7-5-----5-7-|--4-------4-------|--------------|------------------|
--3-3-3-3-6-7-3-3-|--2-2-2-2-2-------|--------------|--------2-1-2-5-4-|
------------------|------------3-2-0-|------0-------|--3-2-3-----------|


                                                                      
----------------------3-2-3-2-0-|--3-2-0-3-2-0-3-2-|--0-3-2-0-3-2-0--|
----------------3-2-3-----------|--3-2-0-3-2-0-3-2-|--0-3-2-0-3-2-0--|
----------4-3-4-----------------|--3-2-0-3-2-0-3-2-|--0-3-2-0-3-2-0--|
----5-4-5-----------------------|------------------|-----------------|
--5-----------------------------|------------------|-----------------|
--------------------------------|------------------|-----------------|


                                                                      
---------------|------------------|---------------|------------------|
---------------|------------------|---------------|------------------|
--7---2--------|------------------|--5---2--------|------------------|
--7---2--------|------------------|--5---2--------|------------------|
--5---0--0-0-0-|--0-0-0-0-0-0-0-0-|--3---0--0-0-0-|--0-0-0-0-0-0-0-0-|
---------------|------------------|---------------|------------------|


                                                                 
-------------|-----------------|---------------|----------------|
-------------|-----------------|---------------|----------------|
--3---2--2---|--4r-2-----------|---------------|----------------|
--3---2--2---|-------4-2-------|--2-2-----2----|--2-2-----2-2---|
--1---0--0---|-----------3b0---|--0-0-----0----|--0-0-----0-0---|
-------------|---------------3-|------2-0------|------2-0-------|


                                                                    
---------------|----8-9---8-9-----|---------------|----------------|
---------------|----7-8---7-8-----|---------------|--3---3-5-------|
--7---2--------|----8-9---8-9-----|--5---2------5-|----5-----4-2~--|
--7---2--------|------------------|--5---2----2---|----------------|
--5---0--0-0-0-|--0-----0-----0-0-|--3---0--0-0---|----------------|
---------------|------------------|---------------|----------------|


                                                       
-----------------|--0-5-0-5-9-12t9-5-0-5-0-5-9-12t9-5-|
-----------------|------------------------------------|
--3--3-3-2-2-2-2-|------------------------------------|
--3--3-3-2-2-2-2-|------------------------------------|
--1--1-1-0-0-0-0-|------------------------------------|
-----------------|------------------------------------|


                                                               
--10-9-7-9-10-9-15t10-15t10-9-7-10-9-7-9-10-9-15t10-15t10-9-7-|
--------------------------------------------------------------|
--------------------------------------------------------------|
--------------------------------------------------------------|
--------------------------------------------------------------|
--------------------------------------------------------------|


                                                                       
--12-10-9-10-12-10-17t12-17t12-10-9-12-10-9-10-12-10-17t12-17t12-10-9-|
----------------------------------------------------------------------|
----------------------------------------------------------------------|
----------------------------------------------------------------------|
----------------------------------------------------------------------|
----------------------------------------------------------------------|


                                                                    
------------------|------------------|--3-----------|--2-----------|
------------------|------------------|-----3--------|-----3--------|
------------------|------------------|--------0-----|--------0-----|
------------------|------0-1-2-3-4-5-|----------0---|----------0---|
------------0-1-2-|--3-4-------------|--------------|--------------|
--0-1-2-3-4-------|------------------|--------------|--------------|


                                                                           
--1-----------|--0-----------|--------------|--------------|--------------|
-----3--------|-----3--------|--3-----------|--2-----------|--1-----------|
--------0-----|--------0-----|-----0--------|-----0--------|-----0--------|
----------0---|----------0---|--------0-----|--------0-----|--------0-----|
--------------|--------------|-----------5--|-----------4--|-----------3--|
--------------|--------------|--------------|--------------|--------------|


                                                                           
--------------|--3-----------|--2-----------|--1-----------|--0-----------|
--0-----------|-----3--------|-----3--------|-----3--------|-----3--------|
-----0--------|--------0-----|--------0-----|--------0-----|--------0-----|
--------0-----|----------0---|----------0---|----------0---|----------0---|
-----------2--|--------------|--------------|--------------|--------------|
--------------|--------------|--------------|--------------|--------------|


                                                            
--------------|--------------|--------------|--------------|
--3-----------|--2-----------|--1-----------|--0-----------|
-----0--------|-----0--------|-----0--------|-----0--------|
--------0-----|--------0-----|--------0-----|--------0-----|
-----------5--|-----------4--|-----------3--|-----------2--|
--------------|--------------|--------------|--------------|


                                                                       
--5-0-0-0-7-0-0-0-8-0-0-0-10-0-0-0-|--8-0-0-0-7-0-0-0-5-0-0-0-4-0-0-0-|
-----------------------------------|----------------------------------|
-----------------------------------|----------------------------------|
-----------------------------------|----------------------------------|
-----------------------------------|----------------------------------|
-----------------------------------|----------------------------------|


                                                                      
--5-0-0-0-7-0-0-0-8-0-0-0-7-0-0-0-|--5-0-0-0-4-0-0-0-5-0-0-0-7-0-0-0-|
----------------------------------|----------------------------------|
----------------------------------|----------------------------------|
----------------------------------|----------------------------------|
----------------------------------|----------------------------------|
----------------------------------|----------------------------------|


                                                                        
--8-0-0-0-10-0-0-0-8-0-0-0-7-0-0-0-|--10-0-0-0-8-0-0-0-7-0-0-0-5-0-0-0-|
-----------------------------------|-----------------------------------|
-----------------------------------|-----------------------------------|
-----------------------------------|-----------------------------------|
-----------------------------------|-----------------------------------|
-----------------------------------|-----------------------------------|


                                                               
--------------------|--------------|--------------------------|
--10----------------|----9--10/-3--|--------6---6-9-6---6-----|
------9-9-9-10--9/0-|----9--9/--2--|--9-7-9---9-------9---9-7-|
--------------------|--------------|--------------------------|
--------------------|--------------|--------------------------|
--------------------|--------------|--------------------------|


                                                      
--------------------------|--------5---5-9-5---5-----|
--------6---6-9-6---6-----|--------------------------|
--9-7-9---9-------9---9-6-|--9-6-9---9-------9---9-6-|
--------------------------|--------------------------|
--------------------------|--------------------------|
--------------------------|--------------------------|


                                                                  
----------9----9-12-9----9------|----------7----7-10-7----7------|
--------------------------------|--------------------------------|
--12-9-12---12--------12---12-9-|--11-7-11---11--------11---11-7-|
--------------------------------|--------------------------------|
--------------------------------|--------------------------------|
--------------------------------|--------------------------------|


                                                                 
----------7----7-11-7----7------|----------------|--------------|
--------------------------------|----------------|--------------|
--11-8-11---11--------11---11-8-|--x-9r-x-7r-x-6r|---x-5r-x-4r--|
--------------------------------|----------------|--------------|
--------------------------------|----------------|--------------|
--------------------------------|----------------|--------------|


                                                          
----------------------------|----------------------------|
------6-9-6------6-9-6------|------6-9-6------6-9-6------|
--7-9-------9--9-------9-7--|--7-9-------9--9-------9-6--|
----------------------------|----------------------------|
----------------------------|----------------------------|
----------------------------|----------------------------|


                                                                
------5-9-5------5-9-5------|-------9-12-9--------9-12-9-------|
----------------------------|----------------------------------|
--6-9-------9--9-------9-6--|--9-12--------12--12--------12-9--|
----------------------------|----------------------------------|
----------------------------|----------------------------------|
----------------------------|----------------------------------|


                                                                   
-------7-10-7----------7-10-7----|-------7-11-7---------7-11-7----|
---------------------------------|--------------------------------|
--7-11--------11--7-11--------11-|--8-11--------11-8-11--------11-|
---------------------------------|--------------------------------|
---------------------------------|--------------------------------|
---------------------------------|--------------------------------|


                                                                              
-----------------12-16-12----------12-|--16-19-16-12-16-12----12-------------|
--------------------------------------|--------------------------------------|
-----------13-16----------16-13-16----|--------------------16----16-13-16-13-|
--------14----------------------------|--------------------------------------|
-----14-------------------------------|--------------------------------------|
--12----------------------------------|--------------------------------------|


                                                           
------------------------------|-----------|---------------|
------------------------------|-----------|---------------|
-----13-----------------------|-----------|--7---2--------|
--14----14-9-14-9-6-9-6---6---|-----------|--7---2--------|
------------------------7---7-|-----------|--5---0--0-0-0-|
------------------------------|--0--------|---------------|


                                                      
--5-0-5-7-12t7-5-0-5-0-5-7-12t7-5-0-5-0-5-7-12t7-5-0-|
-----------------------------------------------------|
-----------------------------------------------------|
-----------------------------------------------------|
-----------------------------------------------------|
-----------------------------------------------------|


                                                       
--10t9-7-5-10t9-7-5-10t9-7-5-9t7-5-4-9t7-5-4-10t9-7-5-|
------------------------------------------------------|
------------------------------------------------------|
------------------------------------------------------|
------------------------------------------------------|
------------------------------------------------------|


                                                                    
--10t9-7-5-9t7-5-4-10t9-7-5-10t9-7-5-9t7-5-4-7t5-4-0-|-------------|
-----------------------------------------------------|-------------|
-----------------------------------------------------|--3---2--2---|
-----------------------------------------------------|--3---2--2---|
-----------------------------------------------------|--1---0--0---|
-----------------------------------------------------|-------------|


                                                                   
-----------------|---------------|----------------|---------------|
-----------------|---------------|----------------|---------------|
--4r-2-----------|---------------|----------------|--7---2--------|
-------4-2-------|--2-2-----2----|--2-2-----2-2---|--7---2--------|
-----------3b0---|--0-0-----0----|--0-0-----0-0---|--5---0--0-0-0-|
---------------3-|------2-0------|------2-0-------|---------------|


                                                                      
----8-9---8-9-----|---------------|----------------|-------------15b-|
----7-8---7-8-----|---------------|--3---3-5-------|-----------------|
----8-9---8-9-----|--5---2------5-|----5-----4-2~--|--3--3-3-2-2-----|
------------------|--5---2----2---|----------------|--3--3-3-2-2-----|
--0-----0-----0-0-|--3---0--0-0---|----------------|--1--1-1-0-0-----|
------------------|---------------|----------------|-----------------|


                                                   
--17-16-15----16-15-------15----------------------|
-----------17-------17-16----17-16-15-17-16-15----|
-----------------------------------------------17-|
--------------------------------------------------|
--------------------------------------------------|
--------------------------------------------------|


                                                   
--------------------------------------------------|
--16-15-------15----------------------------------|
--------17-16----17-16-14-17-16-14----16-14-------|
-----------------------------------17-------17-16-|
--------------------------------------------------|
--------------------------------------------------|


                                                                      
--------------------------------------------------|------------------|
--------------------------------------------------|------------------|
--14----------------------------------------------|------------------|
-----17-16-14-17-16-14----16-14-------14----------|------------------|
-----------------------17-------17-15----17-15-14-|------------0-1-2-|
--------------------------------------------------|--0-1-2-3-4-------|


                                                                            
------------------|------------------|----0-1-2-3-4-5-6-|------------------|
------------------|----------0-1-2-3-|--4---------------|------------------|
------------------|--0-1-2-3---------|------------------|------------------|
------0-1-2-3-4-5-|------------------|------------------|------------------|
--3-4-------------|------------------|------------------|------------0-1-2-|
------------------|------------------|------------------|--0-1-2-3-4-------|


                                                                          
------------------|------------------|----0-1-2-3-4-5-6-|-------16-17-19-|
------------------|----------0-1-2-3-|--4---------------|----------------|
------------------|--0-1-2-3---------|------------------|----------------|
------0-1-2-3-4-5-|------------------|------------------|----------------|
--3-4-------------|------------------|------------------|----------------|
------------------|------------------|------------------|----------------|


                                                                    
--20-19h20p19-17-16-17----------|------------------17--|----------||
-----------------------17-18----|--17-19-17-16-14--17--|----------||
-----------------------------19-|--17-19-17-16-14------|----------||
--------------------------------|----------------------|----------||
--------------------------------|----------------------|----------||
--------------------------------|----------------------|----------||
00:00 / 00:00
Outros vídeos desta música
Repetir
Outros vídeos desta música
Composição de Gary Cherone / Nuno Bettencourt
883 exibições
    • ½ Tom
    • A
    • Bb
    • B
    • C
    • Db
    • D
    • Eb
    • E
    • F
    • F#
    • G
    • Ab
  • Adicionar à lista

    0 comentários

    Ver todos os comentários

    Conseguiu tocar?

    0 Tocaram 0 Ainda não

    Grave um vídeo tocando Play With Me e nos envie!

    Entre para oCifra Club PRO

    Tenha acesso a benefícios exclusivos no App e no Site

    • Chega de anúncios

    • Prioridade de compra em lançamentos

    • Mais recursos no app do Afinador

    • Atendimento Prioritário

    • Descontos nos produtos Cifra Club

    • Ajude a produzir mais conteúdo

    00:00 / 00:00

    Cifra Club Pro

    Aproveite o Cifra Club com benefícios exclusivos e sem anúncios
    Cifra Club Pro
    Aproveite o Cifra Club com benefícios exclusivos e sem anúncios
    OK