Cifra Club

Meu Abrigo

Eyshila

Cifra: Principal (violão e guitarra)
tom: D
(intro 4x)  Em  G  D  A9


E|--------------------4h6-4---------------5--3-------|
B|--5m-5m--5\7~----4h6-------5m-5m-5\7~--5--3-3\5/3--|
G|--4m-4m--4\6~--0m----------4m-4m-4\6~--------------|
D|---------------------------------------------------|
A|---------------------------------------------------|
E|---------------------------------------------------|

E|----------------------10-12p10-------------------------|
B|--5m-5m--5\7~--\10-12----------12~--5m-5m-5\7-5-4------|
G|--4m-4m--4\6~-----------------------4m-4m-4\6-4---5~~--|
D|-------------------------------------------------------|
A|-------------------------------------------------------|
E|-------------------------------------------------------|


Em G               D      A9
Aquele que habita no Teu esconderijo
Em G          D       A9
Em Tua sombra poderá descansar
Em G                  D        A9
Aquele que confia em Ti está seguro
G          Em       A9
Refúgio sempre encontrará

Em G                 D     A9
Aquele que espera em Ti sempre alcança
Em G           D          A9
Lugares impossíveis de se conquistar
Em G                 D            A9
Aquele que não abre mão de ser Teu filho
G                  G/B    A9       D
Bendito sempre  bendito sempre será

D                     Bm7
Só quero estar em Tua presença
G                    D          A9      D
E ser um vencedor  e ser um vencedor Senhor
                     Bm7
Quero habitar em Tua presença
G                   D                  A9     Em
E ser um vencedor  e ser bem mais que vencedor

 (solo) Em  G  D  A9

E|----------------------------------7h8-5-8--7h8-8-5-------------------------|
B|-5\7---5--6p4----5\7-5-5------5\7-----------------7-5-5h7-5----------------|
G|-4\6--4-4-----4--4\6-4---4~~--4\6---------------------------7-5-5h7-5------|
D|---------------------------------------------------------------------------|
A|---------------------------------------------------------------------5-5\7-|
E|---------------------------------------------------------------------------|


G                   D
E por mais que eu ande
A9                    Bm7
Pelo vale da sombra da morte
G      D      A9       G
Não temeria  mal algum Senhor
D                     A9              Bm7
Pois Tu estás comigo  me livrando todo dia
Em           Bm7      A9
Tua presença é o meu abrigo.
00:00 / 00:00
Outros vídeos desta música
Repetir
Outros vídeos desta música
Composição de Anderson Freire / Aretuza / Dirceu Freire
Colaboração e revisão:
  • luiz
  • brenda ribeiro
8.728 exibições
    • ½ Tom
    • A
    • Bb
    • B
    • C
    • Db
    • D
    • Eb
    • E
    • F
    • F#
    • G
    • Ab
  • Adicionar à lista

    0 comentários

    Ver todos os comentários

    Entre para oCifra Club PRO

    Tenha acesso a benefícios exclusivos no App e no Site

    • Chega de anúncios

    • Prioridade de compra em lançamentos

    • Mais recursos no app do Afinador

    • Atendimento Prioritário

    • Descontos nos produtos Cifra Club

    • Ajude a produzir mais conteúdo

    00:00 / 00:00

    Cifra Club Pro

    Aproveite o Cifra Club com benefícios exclusivos e sem anúncios
    Cifra Club Pro
    Aproveite o Cifra Club com benefícios exclusivos e sem anúncios
    OK