Cifra Club

Give Him Up

Faber Drive

Cifra: Principal (violão e guitarra)
Tom: F
E|------------------------------------------------|
B|------------------------------------------------|
G|--2--2--2----------------5--5--5----------------| (x2)
D|--2--2--2--3--3--3-3--3--5--5--5--5--5--5-5--5--|
A|--0--0--0--3--3--3-3--3--3--3--3--5--5--5-5--5--|
E|-----------1--1--1-1--1-----------3--3--3-3--3--|

E|-----------------------------------------------------------------|
B|-----------------------------------------------------------------|
G|-2-2-2-2-2-2-2-2-----------------5-5-5-5-5-5-5-5-----------------|
D|-2-2-2-2-2-2-2-2-3-3-3-3-3-3-3-3-5-5-5-5-5-5-5-5-5-5-5-5-5-5-5-5-|
A|-0-0-0-0-0-0-0-0-3-3-3-3-3-3-3-3-3-3-3-3-3-3-3-3-5-5-5-5-5-5-5-5-|
E|-----------------1-1-1-1-1-1-1-1-----------------3-3-3-3-3-3-3-3-|

E|------------------------------------------------|
B|------------------------------------------------|
G|--2--2--2----------------5--5--5----------------| (x4)
D|--2--2--2--3--3--3-3--3--5--5--5--5--5--5-5--5--|
A|--0--0--0--3--3--3-3--3--3--3--3--5--5--5-5--5--|
E|-----------1--1--1-1--1-----------3--3--3-3--3--|

E|----------------------|
B|----------------------|
G|-2-2-2-2-2-2-2-2--5-5-|
D|-2-2-2-2-2-2-2-2--5-5-|
A|-0-0-0-0-0-0-0-0--3-3-|
E|----------------------|

E|---------------------------------------------------------------------|
B|---------------------------------------------------------------------|
G|---------------------------------------------------------------------|
D|-5-5-5-5-5-5-5-5-7-7-7-7-10-10-10-10-3-3-3-3-3-3-3-3-3-3-3-3-3-3-3-3-| (x2)
A|-5-5-5-5-5-5-5-5-7-7-7-7-10-10-10-10-3-3-3-3-3-3-3-3-3-3-3-3-3-3-3-3-|
E|-3-3-3-3-3-3-3-3-5-5-5-5-8--8--8--8--1-1-1-1-1-1-1-1-1-1-1-1-1-1-1-1-|

E|------------------------------------------------|
B|------------------------------------------------|
G|--2--2--2----------------5--5--5----------------|
D|--2--2--2--3--3--3-3--3--5--5--5--5--5--5-5--5--|
A|--0--0--0--3--3--3-3--3--3--3--3--5--5--5-5--5--|
E|-----------1--1--1-1--1-----------3--3--3-3--3--|

E|--------------------------------------|
B|--------------------------------------|
G|--2--2--2----------------5--5--5------|
D|--2--2--2--3--3--3-3--3--5--5--5--5---|
A|--0--0--0--3--3--3-3--3--3--3--3--5---|
E|-----------1--1--1-1--1-----------3---|

E|------------------------------------------------|
B|------------------------------------------------|
G|--2--2--2----------------5--5--5----------------| (x4)
D|--2--2--2--3--3--3-3--3--5--5--5--5--5--5-5--5--|
A|--0--0--0--3--3--3-3--3--3--3--3--5--5--5-5--5--|
E|-----------1--1--1-1--1-----------3--3--3-3--3--|

      (guitar 1)
E|-------------|
B|-------------|
G|-------------| (x4)
D|-------------|
A|-3h5-5/7-5\3-|
E|-------------|

      (guitar 2)
E|--------------------------------------------------------|
B|--------------------------------------------------------|
G|-2-2-2-2-2-2-2-2-2-2-2-2-2-2-2-2-2-2-2-2-2-2-2-2--5-5---|
D|-2-2-2-2-2-2-2-2-2-2-2-2-2-2-2-2-2-2-2-2-2-2-2-2--5-5---|
A|-0-0-0-0-0-0-0-0-0-0-0-0-0-0-0-0-0-0-0-0-0-0-0-0--3-3---|
E|--------------------------------------------------------|

E|---------------------------------------------------------------------|
B|---------------------------------------------------------------------|
G|---------------------------------------------------------------------|
D|-5-5-5-5-5-5-5-5-7-7-7-7-10-10-10-10-3-3-3-3-3-3-3-3-3-3-3-3-3-3-3-3-| (x2)
A|-5-5-5-5-5-5-5-5-7-7-7-7-10-10-10-10-3-3-3-3-3-3-3-3-3-3-3-3-3-3-3-3-|
E|-3-3-3-3-3-3-3-3-5-5-5-5-8--8--8--8--1-1-1-1-1-1-1-1-1-1-1-1-1-1-1-1-|

E|----------------------------------------------|
B|----------------------------------------------|
G|--2--2--2---------------5--5--5---------------| (x2)
D|--2--2--2--3--3---3--3--5--5--5--5--5---5--5--|
A|--0--0--0--3--3---3--3--3--3--3--5--5---5--5--|
E|-----------1--1---1--1-----------3--3---3--3--|

   Not sure about this part. I think it’s keyboard.

E|-3-3-3-3-3-3-3-3-5-5-5-5-8-8-8-8-1-1-1-1-1-1-1-1---|
B|---------------------------------------------------|
G|---------------------------------------------------| (x3)
D|---------------------------------------------------|
A|---------------------------------------------------|
E|---------------------------------------------------|

     (guitarra 1)
E|-------------|
B|-------------|
G|-------------| (x4)
D|-------------|
A|-3h5-5/7-5\3-|
E|-------------|

     (guitarra 2)
E|-----------------------------------------------------|
B|-----------------------------------------------------|
G|-2-2-2-2-2-2-2-2-2-2-2-2-2-2-2-2-2-2-2-2-2-2-2-2-----|
D|-2-2-2-2-2-2-2-2-2-2-2-2-2-2-2-2-2-2-2-2-2-2-2-2-----|
A|-0-0-0-0-0-0-0-0-0-0-0-0-0-0-0-0-0-0-0-0-0-0-0-0-----|
E|-----------------------------------------------------|

E|------------------------------------------------|
B|------------------------------------------------|
G|--2--2--2----------------5--5--5----------------|
D|--2--2--2--3--3--3-3--3--5--5--5--5--5--5-5--5--|
A|--0--0--0--3--3--3-3--3--3--3--3--5--5--5-5--5--|
E|-----------1--1--1-1--1-----------3--3--3-3--3--|

E|---------------------------------------------------------------------|
B|---------------------------------------------------------------------|
G|---------------------------------------------------------------------|
D|-5-5-5-5-5-5-5-5-7-7-7-7-10-10-10-10-3-3-3-3-3-3-3-3-3-3-3-3-3-3-3-3-| (x4)
A|-5-5-5-5-5-5-5-5-7-7-7-7-10-10-10-10-3-3-3-3-3-3-3-3-3-3-3-3-3-3-3-3-|
E|-3-3-3-3-3-3-3-3-5-5-5-5-8--8--8--8--1-1-1-1-1-1-1-1-1-1-1-1-1-1-1-1-|

E|------------------------------------------------|
B|------------------------------------------------|
G|--2--2--2----------------5--5--5----------------|
D|--2--2--2--3--3--3-3--3--5--5--5--5--5--5-5--5--|
A|--0--0--0--3--3--3-3--3--3--3--3--5--5--5-5--5--|
E|-----------1--1--1-1--1-----------3--3--3-3--3--|

E|-----------------------------------------|
B|-----------------------------------------|
G|--2--2--2----------------5--5--5---------|
D|--2--2--2--3--3--3-3--3--5--5--5--5-\-3--|
A|--0--0--0--3--3--3-3--3--3--3--3--5-\-3--|
E|-----------1--1--1-1--1-----------3-\-1--|
exibições 116
Acordes para:
    Composição: Josh Ramsay / Krikit Colaboração e revisão:
    • Jefferson Sousa

    0 comentários

    mostrar mais comentários

    Conseguiu tocar?

    0 tocaram 0 ainda não

    Grave um vídeo tocando Give Him Up e mande pra gente!

    00:00 / 00:00
    outros vídeos desta música
    repetir qualidade Automático
    Outros vídeos desta música
    00:00 / 00:00
    Automático
    OK