Cifra Club

Aprenda

Miss Judys Farm

The Faces

Cifra: Principal (violão e guitarra)
tom: C
Intro:
e|-this isn’t too accurate but if you listen to the track you can get it--|
B|------------------------------------------------------------------------|
G|------------------------------------------------------------------------|
D|--10h12-10-12-12-12-12-xx-10-12-10-12-10-12-xx-----10-12-10-12----------|
A|--10h12-10-12-12-12-12-xx-10-12-10-12-10-12-xx-X3--10-12-10-12----------|
E|--10-10-10-10-10-10-10-xx-10-10-10-10-10-10-xx-----10-10-10-10----------|
p.m       *  *     *        *  *  *

e|--------------------------------|
B|--------------------------------|
G|--------------------------------|
D|--------------------------------|
A|--11h12p11h12-11h12p11h12-------|
E|--------------------------------|

e|------------------------------------------------------------------------|
B|------------------------------------------------------------------------|
G|-------10-12----------------10-12-------------------10-12---------------|
D|-------10-12-10-12v---------10-12---------X2--------10-12---------------|
A|-10h12----------------10h12-------8-----------10h12-------8-8h10p8------|
E|------------------------------------10v-----------------------------10v-|

e|-----------------------------------------------------------------------|
B|-----------------------------------------------------------------------|
G|--------10-12---------------10-12-------------------12b13-12p10--------|
D|--------10-12---------------10-12-------------------------------12v----|
A|--10h12-------10b------10h12-------8-8h10p8----------------------------|
E|-----------------10v------------------------10v------------------------|

Verse:
e|---------------------------|
B|-------1010----------------|
G|-------1010----------------|
D|-10h12---------------------|
A|-10h12------12-14-12-------|
E|------------10-10-10-------|
           p.m*  *
there’s a bit of variation but these 2 parts are what it’s based on

e|---------------------------------------------|
B|---------------------------------------------|
G|-----------------------------12b13-12-10-----|
D|------------------------------------------12-|
A|--12-14-12--a few times---12-----------------|
E|--10-10-10----------------10-----------------|

Bridge/Interlude bit
e|-------------------------|
B|-------------------------|
G|-------------------------|
D|-15-14-12-10-1212-10-12--|
A|-------------------------|
E|-------------------------|

e|------|
B|--12--|
G|--12--|
D|------|
A|------|
E|------|
strummed a few times with the odd bend, again if you listen to the track you can tell where

e|---------------------------------------------------------------|
B|---------------------------------------------------------------|
G|---12b13-12b13 12p10-------------------------------------------|
D|---------------------12-12121212--121212121212121212121212-----|
A|------------------------10101010--101010101010101010101010-----|
E|---------------------------------------------------------------|
                                p.m * * * * * * * *     *
again listen to track to get exactly right

e|-----------------------------------------|
B|-----------------------------------------|
G|-----------------------------------------|
D|--------15-14-1212-------1212----12------|
A|--12-12-12-12-1212-12h14-1212-14-12------|
E|--10-10-10-10-1010-10----1010-10-10------|
p.m       *******    *******
Colaboração e revisão:
  • Élison Duarte
366 exibições
    • ½ Tom
    • A
    • Bb
    • B
    • C
    • Db
    • D
    • Eb
    • E
    • F
    • F#
    • G
    • Ab
  • Adicionar à lista

    0 comentários

    Ver todos os comentários

    Conseguiu tocar?

    0 Tocaram 0 Ainda não

    Grave um vídeo tocando Miss Judys Farm e nos envie!

    00:00 / 00:00
    outros vídeos desta música
    repetir qualidade Automático
    Outros vídeos desta música
    00:00 / 00:00
    Automático

    Cifra Club Pro

    Aproveite o Cifra Club com benefícios exclusivos e sem anúncios
    Cifra Club Pro
    Aproveite o Cifra Club com benefícios exclusivos e sem anúncios
    OK