Cifra Club

Borbulhas de Amor

Fagner

Cifra: Principal
exibições 1.112.300
Tom: E (com acordes na forma de D) Capotraste na 2ª casa
Introdução:

Solo - Parte 1 de 2
E|-----2------------------------------------|
B|-2/3--------5/7-7\5-5---5-----------------|
G|----------------------4-------------------|
D|------------------------------------------|
A|------------------------------------------|
E|------------------------------------------|

Solo - Parte 2 de 2
E|------------------------------------------|
B|-3/5\3-2----------------------------------|
G|---------4-2h4p2\1-1-2-4-2~---------------|
D|------------------------------------------|
A|------------------------------------------|
E|------------------------------------------|

Base: Bm  E/G#  Bm  E

   Bm           E/G#         Bm      E
E|------------------------------------------|
B|-------3------------0------------3-------0|
G|-----4------------1------------4-------1--|
D|---4------------2------------4-------2----|
A|-2---------2---------------2--------------|
E|---------2----4-------0-0----------0------|

Primeira Parte:

Parte 1 de 4
   A
E|---------0-------------------0------------|
B|-------2-2---2---2---------2-2---2---2----|
G|-----2---2---2---2-------2---2---2---2----|
D|---2-----2---2---2-----2-----2---2---2----|
A|-0-------0-----------0-------0------------|
E|-----------0---0---------------0---0------|

Variação Parte 1
   A
E|---------0-------------------0------------|
B|-------2-2---2---2---------2-2---2---2----|
G|-----2---2---2---2-------2---2---2---2----|
D|---2-----2-2-----2-----2-----2---2---2----|
A|-0-------0-----------0-------0-----0------|
E|---------------0---------------0----------|

Parte 2 de 4
   E/G#
E|---------0-------------------0------------|
B|-------0-0---0---0---------0-0---0---0----|
G|-----1---1---1---1-------1---1---1---1----|
D|---2-----2---2---2-----2-----2---2---2----|
A|------------------------------------------|
E|-4---------0---0-----4---------0---0------|

Parte 3 de 4
   Bm                D         Bm
E|---------2--------------------------------|
B|-------3-3---3-----------3---------3------|
G|-----4---4---4---------2---------4--------|
D|---4-----4---4-------4---------4----------|
A|-2-------------2-4-5-------4-2-------0----|
E|-----------2------------------------------|

Parte 4 de 4
   E/G#               Bm         E
E|---------0------------------2----------0--|
B|-------0-0---0---0--------3-3--------0-0--|
G|-----1---1---1---1------4---4------1---1--|
D|---2-----2---2---2----4-----4----2-----2--|
A|--------------------2-------2----------2--|
E|-4---------0---0---------------0----------|


Variação Parte 4
   E/G#               Bm         E
E|---------0------------------2-------------|
B|-------0-0---0---0--------3-3----0--------|
G|-----1---1---1---1------4---4----1--------|
D|---2-----2---2---2----4-----4----2--------|
A|--------------------2-------2-------------|
E|-4---------0---0---------------0---2-4----|

 A
Tenho um coração
                    E/G#
Dividido entre a esperança
E a razão
 Bm              D
Tenho um coração
        Bm            E/G#  Bm  E
Bem melhor que não tivera
A
Esse coração
                    E/G#
Não consegue se conter
Ao ouvir tua voz
 Bm           D
Pobre coração
           Bm         E/G#  Bm  E
Sempre escravo da ternura

Refrão:
                  A
Quem dera ser um peixe

Para em teu límpido
               E/G#
Aquário mergulhar

Fazer borbulhas de amor
             Bm  D
Pra te encantar
    Bm              E/G#
Passar a noite em claro
     Bm    E
Dentro de ti

    A
Um peixe
 
Para enfeitar de corais
        E/G#
Tua cintura

Fazer silhuetas de amor
          Bm  D
À luz da lua
    Bm          E/G#
Saciar esta loucura
     Bm    E
Dentro de ti

Solo 1:

Parte 1 de 2
E|----------------------------2-------------|
B|-5-3--2-3-5--2-3-5-3--2-3-5---5p3-5~------|
G|------------------------------------------|
D|------------------------------------------|
A|------------------------------------------|
E|------------------------------------------|

Parte 2 de 2
E|------------------------------------------|
B|-2/3-2------------------------------------|
G|-------4--1-2--4p2------------------------|
D|-------------------5-2-2/4----------------|
A|---------------------------5-7------------|
E|------------------------------------------|

Base Solo 1: A  E/G#  Bm  G  D  D/E  E

Parte 1 de 4
   A
E|---------0-------------------0------------|
B|-------2-2---2---2---------2-2---2---2----|
G|-----2---2---2---2-------2---2---2---2----|
D|---2-----2---2---2-----2-----2---2---2----|
A|-0-------0-----------0-------0------------|
E|-----------0---0---------------0---0------|

Parte 2 de 4
   E/G#
E|---------0-------------------0------------|
B|-------0-0---0---0---------0-0---0---0----|
G|-----1---1---1---1-------1---1---1---1----|
D|---2-----2---2---2-----2-----2---2---2----|
A|------------------------------------------|
E|-4---------0---0-----4---------0---0------|

Parte 3 de 4
   Bm                  G          D
E|----------2------------------3------------|
B|--------3-3---3---3--------3-3----3---3---|
G|------4---4---4---4------0---0----2---2---|
D|----4-----4---4---4----0-----0----4---4---|
A|--2-----------------------------5---5-----|
E|------------2---2----3--------------------|

Parte 4 de 4
   D/E                E
E|----------------------------0-------------|
B|-------3-3---3---3--------0-0---0---0-----|
G|-----2---2---2---2------1---1---1---1-----|
D|---4-----4---4---4----2-----2---2---2-----|
A|------------------------------------------|
E|-0---------0---0----0---------0---0-------|

Repete a Primeira Parte:

 A
Canta coração
                    E/G#
Que esta alma necessita
De ilusão
 Bm           D
Sonha coração
       Bm             E/G#  Bm  E
Não te enchas de amargura
A
Esse coração
                    E/G#
Não consegue se conter
Ao ouvir tua voz
 Bm           D
Pobre coração
           Bm         E/G#  Bm  E
Sempre escravo da ternura

Repete o Refrão:
                  A
Quem dera ser um peixe

Para em teu límpido
               E/G#
Aquário mergulhar

Fazer borbulhas de amor
             Bm  D
Pra te encantar
    Bm              E/G#
Passar a noite em claro
     Bm    E
Dentro de ti

    A
Um peixe
 
Para enfeitar de corais
        E/G#
Tua cintura

Fazer silhuetas de amor
          Bm  D
À luz da lua
    Bm          E/G#
Saciar esta loucura
     Bm    E
Dentro de ti

Segunda Parte:

Parte 1 de 2
   F                   G
E|---------1-------------------3------------|
B|-------1-1---1---1---------3-3---3---3----|
G|-----2---2---2---2-------0---0---0---0----|
D|---3-----3---3---3-----0-----0---0---0----|
A|-----------3-------------------2----------|
E|-1-------------1-----3-------------3------|

Parte 2 de 2
   Em                  Am7
E|----------0------------------0------------|
B|-------0--0---0---0--------1-1---1---1----|
G|-----0----0---0---0------0---0---0---0----|
D|---2------2---2---2----2-----2---2---2----|
A|------------2--------0--------------------|
E|-0--------------0--------------0---0------|

F      G
  Uma noite
       Em            Am7
Para unir-nos até o fim
F         G             Em
  Cara a cara, beijo a beijo
     Am7
E viver
F       G                A
  Para sempre dentro de ti

Solo 2:

Parte 1 de 2
E|-------------2----------------------------|
B|-----2-3-4-5---2-3-5----------------------|
G|-2-4--------------------------------------|
D|------------------------------------------|
A|------------------------------------------|
E|------------------------------------------|

Parte 2 de 2
E|-----2--------2-----2--5-5p4--------------|
B|-3-5---5--3-5---3-5----------7-5----------|
G|------------------------------------------|
D|------------------------------------------|
A|------------------------------------------|
E|------------------------------------------|

Base do Solo: A  E/G#  Bm  D  Bm  E/G#  Bm  E

Refrão Final:
                  A
Quem dera ser um peixe

Para em teu límpido
               E/G#
Aquário mergulhar

Fazer borbulhas de amor
             Bm  D
Pra te encantar
    Bm              E/G#
Passar a noite em claro
     Bm    E
Dentro de ti

    A
Um peixe
 
Para enfeitar de corais
        E/G#
Tua cintura

Fazer silhuetas de amor
          Bm  D
À luz da lua
    Bm          E/G#
Saciar esta loucura
     Bm    E
Dentro de ti

    A
Um peixe

Para em teu límpido
               E/G#
Aquário mergulhar

Fazer borbulhas de amor
             Bm  D
Pra te encantar
    Bm              E/G#
Passar a noite em claro
     Bm    E
Dentro de ti

    A
Um peixe
 
Para enfeitar de corais
        E/G#
Tua cintura

Fazer silhuetas de amor
          Bm  D
À luz da lua
    Bm          E/G#
Saciar esta loucura
     Bm    E
Dentro de ti
F       G
  Para sempre
           A
Dentro de ti
Acordes para:
    Colaboração e revisão:
    • Caroline
    • Alex Belini

    0 comentários

      mostrar mais comentários

      Conseguiu tocar?

      43tocaram3ainda não

      Grave um vídeo tocando Borbulhas de Amor e mande pra gente!

      00:00 / 00:00
      outros vídeos desta música
      repetirqualidadeautomática
      Outro vídeos desta música
        00:00 / 00:00
        automática
        Capítulos
        • Tocando a música
        • Dicas Iniciais / Equipamentos
        • Acordes da Introdução
        • Tocando a Introdução
        • Solo Introdução - Parte 1 de 2
        • Solo Introdução - Parte 2 de 2
        • Base Introdução
        • Acordes da Primeira Parte
        • Tocando a Primeira Parte
        • Primeira Parte - Parte 1 de 4
        • Primeira Parte - Parte 1 de 4 (Variação)
        • Primeira Parte - Parte 2 de 4
        • Primeira Parte - Parte 3 de 4
        • Primeira Parte - Parte 4 de 4
        • Primeira Parte - Parte 1 de 4 (Variação)
        • Tocando o Refrão
        • Acordes Base do Solo
        • Tocando o Solo
        • Primeiro Solo - Parte 1 de 2
        • Primeiro Solo - Parte 2 de 2
        • Base Solo - Parte 1 de 4
        • Base Solo - Parte 2 de 4
        • Base Solo - Parte 3 de 4
        • Base Solo - Parte 4 de 4
        • Acordes da Segunda Parte
        • Tocando a Segunda Parte
        • Segunda Parte - Parte 1 de 2
        • Segunda Parte - Parte 2 de 2
        • Dicas 2
        • Tocando o Segundo Solo
        • Segundo Solo - Parte 1 de 2
        • Segundo Solo - Parte 2 de 2
        • Encerramento
        • Ficha Técnica
        OK