Cifra Club

Aprenda

Easy

Faith No More

Cifra: Principal (violão e guitarra)
tom: Db (forma dos acordes no tom de C) Capotraste na 1ª casa
Intro 2x: G  Bm  Am  D7

Dedilhado Intro:

Parte 1

   G        Bm       Am       D7
E|---3---3----2---2----0---0----------------|
B|---3---3----3---3----1---1------3---3-----|
G|---4---4----4---4----2---2------5---5-----|
D|--------------------------------4---4-----|
A|----------2---2----0---0----5-5---5-------|
E|-3---3------------------------------------|
     
Parte 2

   G        Bm       Am
E|---3---3----2---2-----0-------------------|
B|---3---3----3---3-----1-------------------|
G|---4---4----4---4-----2-------------------|
D|----------------------2-------------------|
A|----------2---2----0--0-------------------|
E|-3---3------------------------------------|
                        ↓
Primeira Parte:

G                 Bm
  Know it sounds funny
                   Am           D7
But I just can't stand the pain
G           Bm               Am  D7
  Girl I'm leaving you tomorrow
G           Bm
  Seems to me girl you know
          Am        D7
I've done all I can
G            Bm               Am
  You see I beg, stole and I borrowed
      C/D
Yeah,     uh..

Dedilhado Primera Parte:

Parte 1

   G        Bm       Am       D7
E|---3---3----2---2----0---0----------------|
B|---3---3----3---3----1---1------3---3-----|
G|---4---4----4---4----2---2------5---5-----|
D|---5--------4--------2----------4---4-----|
A|----------2---2----0---0----5-5---5-------|
E|-3---3------------------------------------|
     ↓        ↓        ↓          ↓

Parte 2

   G        Bm       Am       D7
E|---3---3----2---2----0---0----------------|
B|---3---3----3---3----1---1--3-3-3-3-3-----|
G|---4---4----4---4----2---2--5-5-5-5-5-----|
D|---5--------4--------2------4-4-4-4-4-----|
A|----------2---2----0---0----5-5-5-5-5-----|
E|-3---3------------------------------------|
     ↓        ↓        ↓      ↓ ↓ ↓ ↓ ↓
Parte 3

   G        Bm       Am       D7
E|---3---3----2---2----0---0----------------|
B|---3---3----3---3----1---1------3---3-----|
G|---4---4----4---4----2---2------5---5-----|
D|---5--------4--------2----------4---4-----|
A|----------2---2----0---0----5-5---5-------|
E|-3---3------------------------------------|
     ↓        ↓        ↓          ↓

Parte 4

   G        Bm       Am      C/D
E|---3---3----2---2----0---0----0---0-------|
B|---3---3----3---3----1---1----1---1-------|
G|---4---4----4---4----2---2----0---0-------|
D|---5--------4--------2---2--0-0---0-------|
A|----------2---2----0----------------------|
E|-3---3------------------------------------|
     ↓        ↓        ↓   ↓    ↓   ↓

Refrão:

               G    Bm  Am
That's why I'm easy
     D7               G      Bm  Am  D7
I'm easy like sunday morning
             G  Bm  Am
It's why I'm easy
 D7               F7M  C/E  C/D  G
Easy like sunday mor____________ning

Dedilhado Refrão:
Parte 1 (2x)

   G        Bm       Am       D7
E|---3---3----2---2----0---0----------------|
B|---3---3----3---3----1---1------3---3-----|
G|---4---4----4---4----2---2------5---5-----|
D|---5--------4--------2----------4---4-----|
A|----------2---2----0---0----5-5---5-------|
E|-3---3------------------------------------|
     ↓        ↓        ↓          ↓

Parte 2

   G        Bm       Am       D7
E|---3---3----2---2----0---0----------------|
B|---3---3----3---3----1---1------3---------|
G|---4---4----4---4----2---2------5---------|
D|---5--------4--------2----------4---------|
A|----------2---2----0---0----5-5-----------|
E|-3---3------------------------------------|
     ↓        ↓        ↓          ↓

Parte 3

  F7M  C/E  C/D    G
E|-0----0----0-0---3-------------------------|
B|-1----1----1-1---3-------------------------|
G|-2----0----0-0---4-------------------------|
D|-3----2----0-0---5-------------------------|
A|-----------------5-------------------------|
E|-----------------3-------------------------|
                   ↓
Segunda Parte:

            F     C/E  Dm
I wanna be high, so   high
      C/E    F
I wanna be free
                        C/E  Dm
To know the things I do are right
      C/E    F
I wanna be free
 C/E  Dm        Bb9  F  Bb/D  C
Just me, oh, babe

Base Solo – Dedilhado Primeira Parte:

(G  Bm  Am  D7) 3x

(G  Bm  Am  C/D)

Solo:

Parte 1

E|------------------------------------------------------|
B|---------9~-9/16--------------------------------------|
G|------------------------------------------------------|
D|-8b9r8-6----------8b9r8-6-6~--------------------------|
A|-----------------------------8\0----------------------|
E|------------------------------------------------------|

Parte 2

E|---------11b13----------------------------------------|
B|---------------11b13-9--------------------------------|
G|-----------------------11-10-8----10p8----------------|
D|-8b9r8-6-----------------------10------10-------------|
A|------------------------------------------------------|
E|------------------------------------------------------|

Parte 3

E|------------------------------------------------------|
B|------------------------------------------------------|
G|------------------------------------------------------|
D|-8b10r8b10r8b10r8b10r8b10-----------------------------|
A|------------------------------------------------------|
E|------------------------------------------------------|

Parte 4

E|------------------------------------------------------|
B|---------9~-9/16--------------------------------------|
G|------------------------------------------------------|
D|-8b9r8-6----------8b9r8-6-6~--------------------------|
A|-----------------------------8\0----------------------|
E|------------------------------------------------------|

Parte 5

E|---------11b13-11-11b13-------11----------------------|
B|------------------------11b13----b13-13r11p9----------|
G|---------------------------------------------10-------|
D|-8b9r8-6----------------------------------------------|
A|------------------------------------------------------|
E|------------------------------------------------------|

Parte 6

E|-------------------11b13-11~--------------------------|
B|------------------------------------------------------|
G|-8h10-8h10-8h10-8~------------------------------------|
D|------------------------------------------------------|
A|------------------------------------------------------|
E|------------------------------------------------------|

Refrão:

               G    Bm  Am
That's why I'm easy
     D7               G      Bm  Am  D7
I'm easy like sunday morning
             G  Bm  Am
It's why I'm easy
 D7               F7M  C/E  C/D  G
Easy like sunday mor____________ning
Composição de Lionel Richie
Colaboração e revisão:
481.109 exibições
  • Simplificar cifra
    • ½ Tom
    • A
    • Bb
    • B
    • C
    • Db
    • D
    • Eb
    • E
    • F
    • F#
    • G
    • Ab
  • Adicionar à lista

    0 comentários

    Ver todos os comentários
    00:00 / 00:00
    outros vídeos desta música
    repetir qualidade Automático
    Outros vídeos desta música
    00:00 / 00:00
    Automático
    Capítulos
    • Tocando a Música
    • Dicas iniciais / Equipamentos
    • Acordes da música
    • Tocando Introdução
    • Ensinando Introdução -Parte 1 de 2
    • Ensinando Introdução -Parte 2 de 2
    • Dicas primeira parte
    • Tocando primeira parte
    • Ensinando Primeira Parte -parte 1 de 4
    • Ensinando Primeira Parte -parte 2 de 4
    • Ensinando Primeira Parte -parte 3 de 4
    • Ensinando Primeira Parte -parte 4 de 4
    • Dicas Refrão
    • Tocando Refrão
    • Ensinando Refrão - parte 1 de 3
    • Ensinando Refrão - parte 2 de 3
    • Ensinando Refrão - parte 3 de 3
    • Dicas Segunda parte
    • Tocando Segunda parte
    • Ensinando ritmo Segunda parte
    • Dicas Solo
    • Tocando Solo
    • Ensinando Solo - parte 1 de 6
    • Ensinando Solo - parte 2 de 6
    • Ensinando Solo - parte 3 de 6
    • Ensinando Solo - parte 4 de 6
    • Ensinando Solo - parte 5 de 6
    • Ensinando Solo - parte 6 de 6
    • Dicas Finais / Encerramento
    • Ficha Técnica

    Cifra Club Pro

    Aproveite o Cifra Club com benefícios exclusivos e sem anúncios
    Cifra Club Pro
    Aproveite o Cifra Club com benefícios exclusivos e sem anúncios
    OK