Cifra Club

Pensamento do Dia

Falamansa

Cifra: Principal (violão e guitarra)
Selo Cifra Club: esta cifra foi revisada para atender aos critérios oficiais da nossa Equipe de Qualidade.
tom: Bb
Intro:

      Bb     Cm       F              Bb      Cm       F
E|-------------------------------------------------------------------------------|
B|---3---1-3-3-1-3-1-3-1-3-1--------3---1-3-3-1-3-1-3-1-3-1|---------------------|
G|-3---3---------------------3----3---3----------------------3-1-----------------|
D|-----------------------------3|--------------------------------3-1-3-1-3-1-----|
A|---------------------------------------------------------------------------3-1-|
E|-------------------------------------------------------------------------------|

Bb             Cm
 Me leve e me guia
F
 Me faz reconhecer
Bb              Cm
 Pensamento do dia
F
 Faça por merecer
Bbm                  Cm
 Muita reza e muita força pra lutar
        F
Pra fortalecer
Bbm                Cm
 Vão querer saber aonde foi buscar
        F
E você vai dizer

    Bb        Cm
Vencer uma batalha a cada dia
F
Vai te convencer
   Bb           Cm
Viver é não deixar a alegria
   F
O nosso amor morrer

   Bb        Cm
Vencer uma batalha a cada dia
F
Vai te convencer
   Bb           Cm
Viver é não deixar a alegria
   F
O nosso amor morrer

     Eb          F
É acreditar num sonho em comum
     Eb          F
É acreditar que juntos formamos um

Bb           Cm
 Parece melodia 
F
 É o que pode ser
Bb              Cm
 Pensamento do dia
F
 E vale pra você
Bbm                  Cm
 Muita alma e muito brilho no olhar
        F
E você pode crer
Bbm                Cm
 Que ainda vão querer te perguntar
        F
E você vai dizer

   Bb        Cm
Vencer uma batalha a cada dia
F
Vai te convencer
   Bb           Cm
Viver é não deixar a alegria
   F
O nosso amor morrer

    Bb        Cm
Vencer uma batalha a cada dia
F
Vai te convencer
   Bb           Cm
Viver é não deixar a alegria
   F
O nosso amor morrer

   Eb          F
É acreditar num sonho em comum
     Eb          F
É acreditar que juntos formamos um


      Bb     Cm       F              Bb      Cm       F
E|----------------------------------------------------------------------|
B|---3---1-3-3-1-3-1-3-1-3-1--------3---1-3-3-1-3-1-3-1-3-1|------------|
G|-3---3---------------------3----3---3----------------------3----------|
D|-----------------------------3|------------------------------3--------|
A|----------------------------------------------------------------------|
E|----------------------------------------------------------------------|


Bb        Cm
Vencer uma batalha a cada dia
F
Vai te convencer
   Bb           Cm
Viver é não deixar a alegria
   F
O nosso amor morrer

Bb        Cm
Vencer uma batalha a cada dia
F
Vai te convencer
   Bb           Cm
Viver é não deixar a alegria
   F
O nosso amor morrer...
00:00 / 00:00
Outros vídeos desta música
Repetir
Outros vídeos desta música
914 exibições
    • ½ Tom
    • A
    • Bb
    • B
    • C
    • Db
    • D
    • Eb
    • E
    • F
    • F#
    • G
    • Ab
  • Adicionar à lista

Afinação da cifra

Afinador online

    0 comentários

    Ver todos os comentários

    Entre para o Cifra Club PRO

    Tenha acesso a benefícios exclusivos no App e no Site

    • Chega de anúncios

    • Mais recursos no app do Afinador

    • Atendimento Prioritário

    • Aumente seu limite de lista

    • Ajude a produzir mais conteúdo

    00:00 / 00:00

    Cifra Club Pro

    Aproveite o Cifra Club com benefícios exclusivos e sem anúncios
    Cifra Club Pro
    Aproveite o Cifra Club com benefícios exclusivos e sem anúncios
    OK