Cifra Club

Aprenda

Beat It

Fall Out Boy

Tab de baixo: Principal
(afinação G D A D)

(baixo entra depois que a guitarra faz 2 vezes)

G|------------------------------|
D|-------3-0----2-0-------------| 
A|-----0------------3-3---------| x2
D|-0-3--------------------------|

G|---------------------------------------|
D|---------------------------------------|
A|---555-333/-555-333-111-333-555-333----| x2
D|---------------------------------------|

G|------------------------------|
D|-------3-0----2-0-------------| 
A|-----0------------3-3---------| x6
D|-0-3--------------------------|

G|---------------------------------------|
D|---------------------------------------|
A|---555-333/-555-333-111-333-555-333----| x2
D|---------------------------------------|

G|------------------------------|
D|-------3-0----2-0-------------| 
A|-----0------------3-3---------| x6
D|-0-3--------------------------|

G|---------------------|
D|---------------------|
A|---------------------| x8
D|--0-0--0----0-0--0---|
Composição de Michael Jackson
Colaboração e revisão:
  • Mateus Figueiredo
  • Fernando Nanzer
3.286 exibições

0 comentários

Ver todos os comentários

Conseguiu tocar?

1 Tocaram 0 Ainda não

Grave um vídeo tocando Beat It e nos envie!

00:00 / 00:00
outros vídeos desta música
repetir qualidade Automático
Outros vídeos desta música
00:00 / 00:00
Automático

Cifra Club Pro

Aproveite o Cifra Club com benefícios exclusivos e sem anúncios
Cifra Club Pro
Aproveite o Cifra Club com benefícios exclusivos e sem anúncios
OK