Cifra Club

I Don't Care

Fall Out Boy

Cifra: Principal
exibições 39.165
Tom: C
(intro/ verso)

E|----------------------------------------------|
B|----------------------------------------------|
G|----------------------------------------------|
D|---4--4--4-4-4-4-4-4----4--4--4-4-4-4-4-4-----|
A|-----------0-2-0-2-0-----------0-2-0-2-0------|
E|-2-------------------2--------------------2---|

(riff)
E|-------------------------------|
B|-------------------------------|
G|-777777-666666-444444-222222---|
D|-777777-666666-444444-222222---|
A|-555555-444444-222222-000000---|
E|-------------------------------|

(refrão)
E|-------------------------------------------------------------------------|
B|-------------------------------------------------------------------------|
G|-----------------7-7-7-7-4-4-4-4-7-7-7-7-4-4-4-4-------------------------|
D|-4-4-4-4-7-7-7-7-7-7-7-7-4-4-4-4-7-7-7-7-4-4-4-4---4-4-4-2---4-2---4-2~--|
A|-4-4-4-4-7-7-7-7-5-5-5-5-2-2-2-2-5-5-5-5-2-2-2-2---4-4-4-0-0-2-0-0-2-0~--|
E|-2-2-2-2-5-5-5-5---------------------------------2-----------------------|(2x)

E|-----|
B|-----|
G|-----|
D|-4~--|
A|-4~--|
E|-2~--|

(intro)
Say my name and his in the same breath
I dare you to say they taste the same
Let the leaves fall off in the summer
And let December glow in flames

(intro)
Erase myself and let go
Start it over again in Mexico
(riff)
These friends, they don't love you
They just love the hotel suites, now

(refrão)
I don't care what you think as long as it's about me
The best of us can find happiness in misery
Said,
I don't care what you think as long as it's about me
The best of us can find happiness in misery (x2)

(intro)
Oh take a chance, let your body get a tolerance
I'm not a chance, put a heat wave in your pants
(riff)
Pull a breath like another cigarette
Pawnshop heart trading up (trading up)

(intro)
Oh the oracle in my chest,
Let the guitar scream like a fascist
(riff)
Sweat it out, shut your mouth
free love on the streets but
in the alley it ain't that cheap, now

(refrão)
I don't care what you think as long as it's about me
The best of us can find happiness in misery
Said,
I don't care what you think as long as it's about me
The best of us can find happiness in misery
(intro, sweet)
Said,
I don't care just what you think
as long as it's about me, you said
I don't care just what you think
as long as it's about me, I said
I don't care (I don't care)
Said, I don't care (I don't care)
Said, I (I) don't (don't) care (care)
I (I) don't (don't) care (no I don't)
I don't care, (I said)
I don't care, (I said)
I (I) don't (don't) care (care)

(refrão)
I don't care what you think as long as it's about me
The best of us can find happiness in misery
Said,
I don't care what you think as long as it's about me
The best of us can find happiness in misery
Acordes para:
    Composição: Fall Out BoyColaboração e revisão:

    0 comentários

      mostrar mais comentários

      Conseguiu tocar?

      6tocaram3ainda não

      Grave um vídeo tocando I Don't Care e mande pra gente!

      00:00 / 00:00
      outros vídeos desta música
      repetirqualidadeautomática
      Outro vídeos desta música
        00:00 / 00:00
        automática
        OK