Cifra Club

Aprenda

Sugar we're going down

Fall Out Boy

Cifra: Principal (violão e guitarra)
Tom: G
Sugar we're going down

Afinação:Dadgbe

Introdução:

e|------------------------------------------------------------------------------------------------------------|
B|------------------------------------------------------------------------------------------------------------|
G|------------------------------------------------------------------------------------------------------------|
D|--0-0-0-0-0-0-0-0-0-0-0-0---5-5-5-5-5-5-5-5-5-5-5-5---9-9-9-9-9-9-9-9-9-9-9-9---5-5-5-5-5-5-5-5-5-5-5-5-----|x1
A|--0-0-0-0-0-0-0-0-0-0-0-0---5-5-5-5-5-5-5-5-5-5-5-5---9-9-9-9-9-9-9-9-9-9-9-9---5-5-5-5-5-5-5-5-5-5-5-5-----|
D|--0-0-0-0-0-0-0-0-0-0-0-0---5-5-5-5-5-5-5-5-5-5-5-5---9-9-9-9-9-9-9-9-9-9-9-9---5-5-5-5-5-5-5-5-5-5-5-5-----|

e|-----------------------------------------------------------------|
B|-----------------------------------------------------------------|
G|------7-----7------7-----7------7-----7-----7-----7--------------|
D|--0-0-x-0-0-x--5-5-x-5-5-x--9-9-x-9-9-x-5-5-x-5-5-x--------------|x1
A|--0-0-5-0-0-5--5-5-5-5-5-5--9-9-5-9-9-5-5-5-5-5-5-5--------------|
D|--0-0---0-0----5-5---5-5----9-9---9-9---5-5---5-5----------------|

Introdução guitarra 2 (só entra no 2º riff da introdução)

e|------------------------|
B|-777-555-888-555-77-55--|
G|-777-777-777-777-77-77--|
D|------------------------|algumas vezes
A|------------------------|
D|------------------------|

finalzinho

e|------|
B|--7~--|
G|--7~--|
D|------|
A|------|
D|------|

Riff 1 Guitarra 1

e|--------------------|
B|--------------------|
G|-7-7-7-7--9-9-9-9---|
D|-x-x-x-x--x-x-x-x---|x4
A|-5-5-5-5--7-7-7-7---|
D|--------------------|

Riff 1 Guitarra 2

e|-------------------------|
B|-------------------------|
G|-7-7-6h7-6h7-----7h9-9~--|
D|-------------7h9---------|
A|-------------------------|
E|-------------------------|

Pré-refrão (duas guitarras)

e|----------------------------------------------------------|
B|----------------------------------------------------------|
G|----------------------------------------------------------|
D|-444444-555555-777777-999999-10-10-10-10-10-10-999999-5~--|
A|-444444-555555-777777-999999-10-10-10-10-10-10-999999-5~--|
E|-444444-555555-777777-999999-10-10-10-10-10-10-999999-5~--|

pm.....................................................

Refrão 

e|------------------------------------------------------------------------------------------------------------|
B|------------------------------------------------------------------------------------------------------------|
G|------------------------------------------------------------------------------------------------------------|
D|--0-0-0-0-0-0-0-0-0-0-0-0---5-5-5-5-5-5-5-5-5-5-5-5---9-9-9-9-9-9-9-9-9-9-9-9---5-5-5-5-5-5-5-5-5-5-5-5-----|x1
A|--0-0-0-0-0-0-0-0-0-0-0-0---5-5-5-5-5-5-5-5-5-5-5-5---9-9-9-9-9-9-9-9-9-9-9-9---5-5-5-5-5-5-5-5-5-5-5-5-----|
D|--0-0-0-0-0-0-0-0-0-0-0-0---5-5-5-5-5-5-5-5-5-5-5-5---9-9-9-9-9-9-9-9-9-9-9-9---5-5-5-5-5-5-5-5-5-5-5-5-----|

e|-----------------------------------------------------------------|
B|-----------------------------------------------------------------|
G|------7-----7------7-----7------7-----7-----7-----7--------------|
D|--0-0-x-0-0-x--5-5-x-5-5-x--9-9-x-9-9-x-5-5-x-5-5-x--------------|x1
A|--0-0-5-0-0-5--5-5-5-5-5-5--9-9-5-9-9-5-5-5-5-5-5-5--------------|
D|--0-0---0-0----5-5---5-5----9-9---9-9---5-5---5-5----------------|

Pós-Refrão

e|----------------------------------------------------------|
B|----------------------------------------------------------|
G|----------------------------------------------------------|
D|-444444-555555-777777-999999-10-10-10-10-10-10-999999-5~--|
A|-444444-555555-777777-999999-10-10-10-10-10-10-999999-5~--|
E|-444444-555555-777777-999999-10-10-10-10-10-10-999999-5~--|

No palm mute vc varia soltando as cordas

Interludio

e|-------------------------------------------------|
B|-------------------------------------------------|
G|-------------------------------------------------|
D|-2-2-2-2-0-------0-5------5-0----0-5-------------|
A|-2-2-2-2-0-------0-5------5-0----0-5-------------|
D|-0-0-0-0-0-------0-5------5-0----0-5-------------|
Preparação Para o refrão

e|------------------------------------------------------------------------------------------------------------|
B|------------------------------------------------------------------------------------------------------------|
G|------------------------------------------------------------------------------------------------------------|
D|--0-0-0-0-0-0-0-0-0-0-0-0---5-5-5-5-5-5-5-5-5-5-5-5---9-9-9-9-9-9-9-9-9-9-9-9---5-5-5-5-5-5-5-5-5-5-5-5-----|x1
A|--0-0-0-0-0-0-0-0-0-0-0-0---5-5-5-5-5-5-5-5-5-5-5-5---9-9-9-9-9-9-9-9-9-9-9-9---5-5-5-5-5-5-5-5-5-5-5-5-----|
D|--0-0-0-0-0-0-0-0-0-0-0-0---5-5-5-5-5-5-5-5-5-5-5-5---9-9-9-9-9-9-9-9-9-9-9-9---5-5-5-5-5-5-5-5-5-5-5-5-----|
pm  . . . . . . . . . . . .   . . . . . . . . . . . .   . . . . . . . . . . . .   . . . . . . . . . . . . 
Algumas vezes
e|-------------|
B|-------------|
G|-7-7-6h7-6h7-|
D|-------------|
A|-------------|
E|-------------|
Ultimo refrão
e|------------------------------------------------------------------------------------------------------------|
B|------------------------------------------------------------------------------------------------------------|
G|------------------------------------------------------------------------------------------------------------|
D|--0-0-0-0-0-0-0-0-0-0-0-0---5-5-5-5-5-5-5-5-5-5-5-5---9-9-9-9-9-9-9-9-9-9-9-9---5-5-5-5-5-5-5-5-5-5-5-5-----|x1
A|--0-0-0-0-0-0-0-0-0-0-0-0---5-5-5-5-5-5-5-5-5-5-5-5---9-9-9-9-9-9-9-9-9-9-9-9---5-5-5-5-5-5-5-5-5-5-5-5-----|
D|--0-0-0-0-0-0-0-0-0-0-0-0---5-5-5-5-5-5-5-5-5-5-5-5---9-9-9-9-9-9-9-9-9-9-9-9---5-5-5-5-5-5-5-5-5-5-5-5-----|

e|-----------------------------------------------------------------|
B|-----------------------------------------------------------------|
G|------7-----7------7-----7------7-----7-----7-----7--------------|
D|--0-0-x-0-0-x--5-5-x-5-5-x--9-9-x-9-9-x-5-5-x-5-5-x--------------|x1
A|--0-0-5-0-0-5--5-5-5-5-5-5--9-9-5-9-9-5-5-5-5-5-5-5--------------|
D|--0-0---0-0----5-5---5-5----9-9---9-9---5-5---5-5----------------|

só entra no 2º

e|------------------------|
B|-777-555-888-555-77-55--|
G|-777-777-777-777-77-77--|
D|------------------------|algumas vezes e repete no finalzinho
A|------------------------|
D|------------------------|

Ordem:
Introdução
Am I more than you bargained for yet
I've been dying to tell you anything you want to hear
Cause that's just who I am this week
Riff 1 duas guitarras
Lie in the grass, next to the mausoleum
I'm just a notch in your bedpost
But you're just a line in a song
(A notch in your bedpost, but you're just a line in a song)

Pré-refrão

Drop a heart, break a name
We're always sleeping in, and sleeping for the wrong team
Refrão 2x


We're going down, down in an earlier round
And Sugar, we're going down swinging
I'll be your number one with a bullet
A loaded gun complex, cock it and pull it

We're going down, down in an earlier round
And Sugar, we're going down swinging
I'll be your number one with a bullet
A loaded gun complex, cock it and pull it
Pós-refrão


Is this more than you bargained for yet
Oh don't mind me I'm watching you two from the closet
Wishing to be the friction in your jeans
Riff 1 duas guitarras

Isn't it messed up how I'm just dying to be him
I'm just a notch in your bedpost
But you're just a line in a song
(Notch in your bedpost, but you're just a line in a song)
Pré-refrão


Drop a heart, break a name
We're always sleeping in, and sleeping for the wrong team
Refrão


We're going down, down in an earlier round
And Sugar, we're going down swinging
I'll be your number one with a bullet
A loaded gun complex, cock it and pull it
[x2]
Interludio


Down, down in an earlier round
And Sugar, we're going down swinging
I'll be your number one with a bullet
A loaded gun complex, cock it and pull it

We're going down, down in an earlier round
And Sugar, we're going down swinging
I'll be your number one with a bullet
A loaded gun complex, cock it and pull it
preparação para o refrão
We're going down, down (down, down)
Down, down (down, down)
We're going down, down (down, down)
A loaded gun complex, cock it and pull it

We're going down, down in an earlier round
And Sugar, we're going down swinging
I'll be your number one with a bullet
A loaded gun complex, cock it and pull it
Ultimo refrão
We're going down, down in an earlier round
And Sugar, we're going down swinging
I'll be your number one with a bullet
A loaded gun complex, cock it and pull it
Composição de Fall Out Boy
Colaboração e revisão:
  • David
  • Matheus Siani
  • Gabriel Pastore
100.651 exibições
    • ½ Tom
    • A
    • Bb
    • B
    • C
    • Db
    • D
    • Eb
    • E
    • F
    • F#
    • G
    • Ab
  • Adicionar à lista

    0 comentários

    Mostrar mais comentários

    Conseguiu tocar?

    2 Tocaram 0 Ainda não

    Grave um vídeo tocando Sugar we're going down e mande pra gente!

    00:00 / 00:00
    outros vídeos desta música
    repetir qualidade Automático
    Outros vídeos desta música
    00:00 / 00:00
    Automático

    Cifra Club Pro

    Aproveite o Cifra Club com benefícios exclusivos e sem anúncios
    7 dias grátis
    Cifra Club Pro
    Aproveite o Cifra Club com benefícios exclusivos e sem anúncios
    7 dias grátis
    OK