Cifra Club

Don't Mess With Ouija Boards

Falling In Reverse

Cifra: Principal (violão e guitarra)
Selo Cifra Club: esta cifra foi revisada para atender aos critérios oficiais da nossa Equipe de Qualidade.
tom: G
Guitarra 1:
D|---------------------------------------------------------------------------|
A|---------------------------------------------------------------------------|
F|---------------------------------------------------------------------------|
C|---------------------------------------------------------------5p0-5p0-5p0-|
G|-8p0-8p0-8p0-8p0-8p0-8p0-8p0-8h10-7p0-7p0-7p0-7p0-7p0-7p0-7p0--------------|
C|---------------------------------------------------------------------------|

D|-------------------------------------------------|(x2)
A|-------------------------------------------------|
F|-------------------------------------------------|
C|-5p0-5p0-5p0-5p0-5h7-3p0-3p0-3p0-3p0-3p0-3p0-3p0-|
G|-------------------------------------------------|
C|-------------------------------------------------|
Intro:

Guitarra 2:
D|----------------------------------------------------------------------------|
A|----------------------------------------------------------------------------|
F|-----2~---5~---7~--6~-------------------------------------------------------|
c|0~---2~---5~---7~--7~------------------------2-2---2-2--2-2---5-5---5-5-5-5-|
g|0~---0~---3~---5~--4~------0-0---0-0--0-0----0-0---0-0--0-0---3-3---3-3-3-3-|
C|0~-------------------------0-0---0-0--0-0-----------------------------------|

Verso:

D|---------------------------------------------------------------------------|
A|---------------------------------------------------------------------------|
F|---------------------------------------------------------------------------|
C|-77777777777777------------------------------------------------------------|
G|-55555554444444--0----5---8-------12---8---7h8h10--0----5---8-------12---8-|
C|-----------------0--0---0---0-0-0----0---0---------0--0---0---0-0-0----0---|
   ..............     .   .   . . .    .   .            .   .   . . .    .

D|-----------------------------------------------------------------------|
A|-----------------------------------------------------------------------|
F|-----------------------------------------------------------------------|
C|----------------------------7----------5------------------7-7-7--------|
G|---10p8p7--5----5---8-----------8---7h8---5----5---8------4-4-4--7-7-7-|
C|-0---------5--5---5---5-5-5---5---5-------5--5---5---5-5---------7-7-7-|
   .            .   .   . . .   .   .          .   .   . .
D|----------------------------------------------------------------------------|
A|----------------------------------------------------------------------------|
F|----------------------------------------------------------------------------|
C|-0--------------3-3-3--------0--------------3-3-3--------5--------------3-3-|
G|-0--0-000-000--7-7-7---000-0-0--0-000-000--7-7-7---000-0-5--5-555-555--7-7--|
C|-0--0-000-000----------000-0-0--0-000-000----------000-0-5--5-555-555-------|
      . ... ...          ... .    . ... ...          ... .    . ... ...
D|---------------------------------|
A|---------------------------------|
F|---------------------------------|
C|--3--------5---------7-7-7-------|
G|-7---000-0-5--5-555--4-4-4-7-7-7-|
C|-----000-0-5--5-555--------7-7-7-|
       ... .    . ...

Pre-Refrão

Guitarra 1: (Tocar durante o Pré-Refrão)
D|-------------17~-----------------------------17~-------------|
A|-----15~-------------15~-------------15~-------------15~-----|
F|-17~-----17~-----17~-----17~-----17~-----17~-----17~-----17~-|
C|-------------------------------------------------------------|
G|-------------------------------------------------------------|
C|-------------------------------------------------------------|

Pre-Refrão

Guitarra 2:
D|-----------------------------------------------------|(x2)
A|-----------------------------------------------------|
F|-----------------------------------------------------|
C|-5(x16)--3(x16)--------------------------------------|
G|-3-------1-------0(x16)--4-4-4-4-4-4-4-5-5-5-5-5-5-5-|
C|-----------------0-------4-4-4-4-4-4-4-5-5-5-5-5-5-5-|
   .       .       .       . . . . . . . . . . . . . .

Refrão:

Guitarra Base:

D|----------------------------------|(x2) --------|
A|----------------------------------|     --------|
F|-5(x8)--3(x8)---------------------|     -7~--6~-|
C|-5------3------0(x8)--------------|     -7~--7~-|
G|-3------1------0------4(x4)-5(x4)-|     -5~--4~-|
C|---------------0------4-----5-----|     --------|

Guitarra Solo:

D|-----------------------------------------------------------------------|
A|-----------------------------------------------------------------------|
F|-14-14-14-14-14-10-10-12-12-14-14-14-9-9-10-10-12-12-12-11-11-11-11-11-|
C|-x--x--x--x--x--x--x--x--x--x--x--x--x-x-x--x--x--x--x--x--x--x--x--x--|
G|-12-12-12-12-12-8--8--10-10-12-12-12-7-7-8--8--10-10-10-9--9--9--9--9--|
C|-----------------------------------------------------------------------|

--------------------------|(x2)
--------------------------|
-14-14-14-14-15-15-15-15--|
-x--x--x--x--x--x--x--x---|
-12-12-12-12-13-13-13-13--|
--------------------------|

D|---------------------------------------------------------------------------|
A|---------------------------------------------------------------------------|
F|---------------------------------------------------------------------------|
C|---------------------------------------------------------------------------|
G|-----------------0----5---8-------12---8---7h8h10--0----5---8-------12---8-|
C|-----------------0--0---0---0-0-0----0---0---------0--0---0---0-0-0----0---|
                      .   .   . . .    .   .            .   .   . . .    .
D|-------------------------------------------------------------------|
A|-------------------------------------------------------------------|
F|-------------------------------------------------------------------|
C|----------------------------7----------5---------------------------|
G|---10p8p7--5----5---8-----------8---7h8---5----5---8---------0-000-|
C|-0---------5--5---5---5-5-5---5---5-------5--5---5---5-5-----0-000-|
   .            .   .   . . .   .   .          .   .   . .     . ...
D|---------------------------------------------------------------------------|
A|---------------------------------------------------------------------------|
F|---------------------------------------------------------------------------|
C|-0--------------3-3-3--------0--------------3-3-3--------5-----------------|
G|-0--0-000-000--7-7-7---000-0-0--0-000-000--7-7-7---000-0-5----5---8--------|
C|-0--0-000-000----------000-0-0--0-000-000----------000-0-5--5---5---5-5-5--|
      . ... ...          ... .    . ... ...          ... .    .   .   . . .

D|------------------------------|
A|------------------------------|
F|----------------------------6-|
C|-7----------7-2-2-2-2-2-2-2---|
G|-----8---7h8--0-0-0-0-0-0-0-4-|
C|---5---5----------------------|

(Refrão)

(Intro)

Ponte:

D|---------------------------------------------------------------------|
A|---------------------------------------------------------------------|
F|---------------------------------------------------------------------|
C|---------------------------------------------------------------------|
G|-5-----------5h8-7-----------7h10-8-------------13p12p10p0-12p10p8p0-|
C|---0-0-0-0-0-------0-0-0-0-0--------0-0-0-0-0-0----------------------|
     . . . . .       . . . . .        . . . . . .
                                                                     (x3)
--------------------------------------------------------------------------|
--------------------------------------------------------------------------|
--------------------------------------------------------------------------|
--------------------------------------------------------------------------|
-5-----------5h8-7-----------7h10-8-------------13-12-10-0-12-10-8-0------|
---0-0-0-0-0-------0-0-0-0-0--------0-0-0-0-0-0---------------------------|
   . . . . .       . . . . .        . . . . . .  .  .  . .  .  . . .

D|----------------------------------------------------------------|
A|----------------------------------------------------------------|
F|----------------------------------------------------------------|
C|----------------------------------------------------------------|
G|-5-5-5-5--555--5-5-5-5--5-5-5-7-7-7-7--777-13p12p10p0-12p10p8p0-|
C|-5-5-5-5--555--5-5-5-5--5-5-5-7-7-7-7--777----------------------|
   . . . .  ...  . . . .  . . . . . . .  ...

Ritmo Solo: 

D|-------------------------------------------------------------------------|
A|-------------------------------------------------------------------------|
F|-------------------------------------------------------------------------|
C|-8----------------------8-----------------------0----------------------3-|
G|-8--8--8--8--8--8--8--8-8--8--8--8--8--8--------0--0--0--0--0--0--0--0-3-|
C|-8--8--8--8--8--8--8--8-8--8--8--8--8--8--8-7-5-0--0--0--0--0--0--0--0-3-|
      .  .  .  .  .  .  .    .  .  .  .  .           .  .  .  .  .  .  .

D|-------------------------------------------------------------------------|
A|-------------------------------------------------------------------------|
F|-------------------------------------------------------------------------|
C|---------------------8------------------------8------------------------0-|
G|-3--3--3--3--3--3--3-8--8--8--8-8-8-8--8-8--8-8--8--8--8-8-8-8--8-8--8-0-|
C|-3--3--3--3--3--3--3-8--8--8--8-8-8-8--8-8--8-8--8--8--8-8-8-8--8-8--8-0-|
   .  .  .  .  .  .  .    .  .  . . . .  . .  .    .  .  . . . .  . .  .

D|--------------------------------------|
A|--------------------------------------|
F|--------------------------------------|
C|---------------------3----------------|
G|-0--0--0--0--0--0--0-3--3--3--3--3\---|
C|-0--0--0--0--0--0--0-3--3--3--3--3\---|
   .  .  .  .  .  .  .    .  .  .

Guitarra Solo:

D|---16--16--16-| 
A|-20--20--20---|
F|--------------|
C|--------------|
G|--------------|
C|--------------|

Guitarra Base:

D|-----------------------------------------------------------------------|
A|-----------------------------------------------------------------------|
F|-----------------------------------------------------------------------|
C|-0--------------------0-------------------------0-------------------0--|
G|-0--0-0-0-0-----0-0-0-0--0-0-0-0----0000--0000000--0-0-0-0----0-0-0-0--|
C|-0--0-0-0-0-----0-0-0-0--0-0-0-0----0000--0000000--0-0-0-0----0-0-0-0--|
      . . . .     . . .    . . . .    ....  ......   . . . .    . . .
------------------------|(x2)
------------------------|
------------------------|
------------------------|
-0-0-0-0----------------|
-0-0-0-0---0000--000000-|
 . . . .

Interludio:

Guitarra Solo

D|------------------------------------------------------------------|(x2)
A|------------------------------------------------------------------|
F|------------------------------------------------------------------|
C|------------------------------------------------------------------|
G|-8p0-8p0-8p0-8p0-8p0-8p0-8p0-8h10-7p0-7p0-7p0-7p0-7p0-7p0-7p0-7p0-|
C|------------------------------------------------------------------|

Guitarra Base

D|---------------|(x2)
A|---------------|
F|-----------2~--|
C|-0~--------2~--|
G|-0~--------0~--|
C|-0~------------|
Outros vídeos desta música
    276 exibições
      • ½ Tom
      • A
      • Bb
      • B
      • C
      • Db
      • D
      • Eb
      • E
      • F
      • F#
      • G
      • Ab
    • Adicionar à lista

    Afinação da cifra

    Afinador online

      0 comentários

      Ver todos os comentários

      Entre para o Cifra Club PRO

      Tenha acesso a benefícios exclusivos no App e no Site

      • Chega de anúncios

      • Badges exclusivas

      • Mais recursos no app do Afinador

      • Atendimento Prioritário

      • Aumente seu limite de lista

      • Ajude a produzir mais conteúdo

      Cifra Club Pro

      Aproveite o Cifra Club com benefícios exclusivos e sem anúncios
      Cifra Club Pro
      Aproveite o Cifra Club com benefícios exclusivos e sem anúncios
      Ops (: Contenido disponible sólo en portugués.
      OK