Cifra Club

Pecado de Amor

Fátima Leão

Cifra: Principal
exibições 74.104
Tom: C#
C#
me deixa aqui com a cabeça cheia de problemas
         F#
Vou me resolver

Sou complicada, louca, inconseqüente
                    C#
Meus defeitos você finge que não vê
        G#
Por me ver chorar
      F#
Por me ver sofrer
      C#
Mas pode ir
                                               F#
E vá com a certeza de que quem perdeu não foi você

Prefiro me acabar nesse vazio
       G#
Do que te fazer sofrer
       F#
Do que te ver chorar pagar
           C#       C#7
Por meus enganos
                    F#
Não vou brincar de amar

Eu vou deixar para lá

Vou esquecer de tudo
                    C#
É bem melhor que eu vá do que te ver chorar pra mim é um absurdo
              G#
Pra que se machucar pedindo pra juntar

Esse amor em pedaços

                      C#
Se Deus não escreveu assim
                  F#
Não vou mais te enganar

Eu não sou a pessoa que você tanto sonhou
                C#
E nem conto de fadas com final feliz que você tanto imaginou
               G#
Se é certo ou errado

Pago as conseqüências
             F#
Posso ser julgada
         G#       C#
Por um pecado de amor

  Solo: F#  C#  G#  F#  C#
E|---------------------9--9--9/8---8-8-8/6---6-6-6/4---4-4-4/6-------------------------------------------|
B|-------------------11-11-11/9--9-9-9/7---7-7-7/5---5-5-5/7------------------6h7------------------------|
G|-------------------------------------------------------------------------------------6--------8--6-8/10|
D|-4----------------------------------------------------------------------------6h8----------------------|
A|----6--4-----------------------------------------------------------------------------------------------|
E|------------2------------------------------------------------------------------------------------------|

E|----------------------------------------------------------------------------------8-8-8/6-|
B|--9--9---9/7----7-7-7/6---6-6-6-----------------------------------------------------------|
G|-10-10-10/8---8-8-8/6---6-6-6--6-6h8-6----------6--------------------8-8-8/6--------------|
D|----------------------------------------6-6h8-6---6h8-----8-6----6-6----------------------|
A|---------------------------------------------------------------------8--------------------|
E|------------------------------------------------------------------------------------------|

E|--6-6-6/4--4-4-4/2--2-2-------------------------------------------------------------------|
B|----------------------------------------------------7p6-----------------------------------|
G|--6-6-6/5--5-5-5/3--3-3------------6-5---6--------8-6-8/10~-------------------------------|
D|----------------------------------6h8-----------------------------------------------------|
A|------------------------------------------------------------------------------------------|
E|------------------------------------------------------------------------------------------|


C#
Mas pode ir
                                               F#
E vá com a certeza de que quem perdeu não foi você

Prefiro me acabar nesse vazio
       G#
Do que te fazer sofrer
       F#
Do que te ver chorar pagar
           C#       C#7
Por meus enganos
                    F#
Não vou brincar de amar

Eu vou deixar para lá

Vou esquecer de tudo
                    C#
É bem melhor que eu vá do que te ver chorar pra mim é um absurdo
              G#
Pra que se machucar pedindo pra juntar

Esse amor em pedaços
                      C#
Se Deus não escreveu assim
                  F#
Não vou mais te enganar

Eu não sou a pessoa que você tanto sonhou
                C#
E nem conto de fadas com final feliz que você tanto imaginou
               G#
Se é certo ou errado

Pago as conseqüências
             F#
Posso ser julgada
         G#       C#
Por um pecado de amor
Acordes para:
    Composição: Fátima LeãoColaboração e revisão:

    0 comentários

      mostrar mais comentários

      Conseguiu tocar?

      4tocaram0ainda não

      Grave um vídeo tocando Pecado de Amor e mande pra gente!

      00:00 / 00:00
      outros vídeos desta música
      repetirqualidadeautomática
      Outro vídeos desta música
        00:00 / 00:00
        automática
        OK