Cifra Club

Detalhe Pendente

Felipe Amorim

Cifra: Principal (violão e guitarra)
Selo Cifra Club: esta cifra foi revisada para atender aos critérios oficiais da nossa Equipe de Qualidade.
tom: D
[Intro] D  E  G 

Bm                   D
 Como é que a gente faz
        E
 Quando a relação acaba
                 G       Bm 
 E o sentimento não

                        D
Pra onde é que a gente vai?
          E
Quando a gente se evita
                             G
Mas a vida joga a gente na mesma direção

[Primeira Parte]

Bm                           D
 O povo fala de você pra mim
                          E
 O povo fala de mim pra você
           G                          D
 Nada conspira pra gente se esquecer

                      A
E a saudade vai acumulando
                           Em
A gente engole cada “eu te amo”
                            G
Meu coração vai sofrendo calado
                          D
Igual ao seu aí do outro lado

                                A
A gente tenta até seguir em frente
                              Em
Mas só que tem um detalhe pendente
         G                              D
É que o amor não terminou junto com a gente

[Solo] D  A  Em  G

[Tab - Solo]

E|----------------------------------------5----------|
B|--------------------5--------------5------5--------|
G|-----------------------7--6--7---------------------|
D|----7--7--7----------------------------------------|
A|---------------------------------------------------|
E|---------------------------------------------------|

E|-----------------------------------5-----------------5---------|
B|---------------5--------------5------8--7--------------8--7----|
G|------------------7--6--7------------------7-----------------7-|
D|---7--7--7-----------------------------------------------------|
A|---------------------------------------------------------------|
E|---------------------------------------------------------------|


Se não chora bebendo, bebe chorando
00:00 / 00:00
Outros vídeos desta música
Repetir
Outros vídeos desta música
2.360 exibições
    • ½ Tom
    • A
    • Bb
    • B
    • C
    • Db
    • D
    • Eb
    • E
    • F
    • F#
    • G
    • Ab
  • Adicionar à lista

Afinação da cifra

Afinador online

    0 comentários

    Ver todos os comentários

    Entre para o Cifra Club PRO

    Tenha acesso a benefícios exclusivos no App e no Site

    • Chega de anúncios

    • Mais recursos no app do Afinador

    • Atendimento Prioritário

    • Aumente seu limite de lista

    • Ajude a produzir mais conteúdo

    00:00 / 00:00

    Cifra Club Pro

    Aproveite o Cifra Club com benefícios exclusivos e sem anúncios
    Cifra Club Pro
    Aproveite o Cifra Club com benefícios exclusivos e sem anúncios
    OK