Cifra Club

Amor Rima Com Dor

Felipe Araújo

Cifra: Principal (violão e guitarra)
Tom: C
[Intro] Dm7  F  C  G

E|------------------------------------------|
B|-10\6-6~--10\6--6-5-6-5-5-3~--3~----------|
G|------------------------------------------|
D|------------------------------------------|
A|------------------------------------------|
E|------------------------------------------|

[Primeira Parte]
 
         Dm7
Se eu tivesse te pedido uma desculpa
                  F
Não carregaria a culpa
 
De não ter te dito nada
 C           G
Nada, nada, nada 

             Dm7
O timbre daquela voz morava

Em meu ouvido foi trocada
      F                                C   
Pelo som da porta batendo na cara, na cara 
                        G
Bateu à porta na minha cara 

[Pré-Refrão]

       F
Só me resta encher a cara e beijar alguém
       G
Só me resta procurar amor onde não tem 
       Em
Só me resta ouvir você dizendo que eu não presto
       F9                                     G
Só me resta aceitar que em sua vida eu virei resto

[Refrão]

C         G
O amor rima com dor
            Am7
Você foi e tá doendo 
            F
E não sara nem fumando e nem bebendo

C         G
O amor rima com dor
            Am7
Você foi e tá doendo 
            F
E não sara nem fumando e nem bebendo

[Solo] C  G  Am7  F 

E|------------------------------------------|
B|---5--------------------------------------|
G|-----5\4/5--9/12--7\6/7-4\3/4-------------|
D|-5----------------------------------------|
A|------------------------------------------|
E|------------------------------------------|

E|------------------------------------------|
B|------------------------------------------|
G|-5p7p5h7-7/9--3/5-------------------------|
D|------------------7-7\5-------------------|
A|------------------------------------------|
E|------------------------------------------|

E|------------------------------------------|
B|------------------------------------------|
G|-5p7p5h7-7/9-9/12--10p9-10p9-7-5--5/7~----|
D|------------------------------------------|
A|------------------------------------------|
E|------------------------------------------|

[Primeira Parte]

            Dm7
O timbre daquela voz morava

Em meu ouvido foi trocada
      F                                C   
Pelo som da porta batendo na cara, na cara 
                        G
Bateu à porta na minha cara 

[Pré-Refrão]

       F
Só me resta encher a cara e beijar alguém
       G
Só me resta procurar amor onde não tem 
       Em
Só me resta ouvir você dizendo que eu não presto
       F9                                     G
Só me resta aceitar que em sua vida eu virei resto

[Refrão]

C         G
O amor rima com dor
            Am7
Você foi e tá doendo 
            F
E não sara nem fumando e nem bebendo

C         G
O amor rima com dor
            Am7
Você foi e tá doendo 
            F
E não sara nem fumando e nem bebendo

[Final] C  G  Am7  F 

E|------------------------------------------|
B|------------------13p12-8-----------------|
G|-7/9-5----7/9-7\----------7p5-------------|
D|-------5~---------------------------------|
A|------------------------------------------|
E|------------------------------------------|

E|------------------------------------------|
B|---------8/10--8-5/6~---------------------|
G|-4/5-7h9----------------------------------|
D|------------------------------------------|
A|------------------------------------------|
E|------------------------------------------|
exibições 975
Acordes para:
    Composição: Bruno Mandioca / Rafael Quadros / Thales Lessa / Waléria Leão Colaboração e revisão:
    • Thiago Almeida
    • Davi Sampaio

    0 comentários

    mostrar mais comentários

    Conseguiu tocar?

    0 tocaram 0 ainda não

    Grave um vídeo tocando Amor Rima Com Dor e mande pra gente!

    00:00 / 00:00
    outros vídeos desta música
    repetir qualidade Automático
    Outros vídeos desta música
    00:00 / 00:00
    Automático
    OK