Cifra Club

Espaçosa Demais

Felipe Araújo

Cifra: Principal (violão e guitarra)
exibições 3.555
Tom: Bb (forma dos acordes no tom de A) Capotraste na 1ª casa
[Intro] 

[Dedilhado]

   D9                   A9 
E|------------------------------------------|
B|-------3-3-3-----3----------5-5-5-----5---|
G|-----2---2---2-----2------4---4---4-----4-|
D|---4-----4-----4--------7-----7-----7-----|
A|-5-------5------------0-------0-----------|
E|------------------------------------------|

   C#m7                         E   
E|------------------------------------------|
B|-------5-5-5-----5----------5-5-5-----5---|
G|-----4---4---4-----4------4---4---4-----4-|
D|---6-----6-----6--------6-----6-----6-----|
A|-4-------4------------4-------7-----------|
E|------------------------------------------|

[Solo]

E|------------------------------------------|
B|------------------------------------------|
G|-2-1/2~----2-4-4/6-2-1/2----2-4-4/6-2-2\1-|
D|---------4----------------4---------------|
A|------------------------------------------|
E|------------------------------------------|

E|------------------------------------------|
B|------------------------------3/5---------|
G|---1-2-2/4--1h2p1-2---1h2p1-2-------------|
D|-4------------------4---------------------|
A|------------------------------------------|
E|------------------------------------------|

[Primeira Parte]

     A9
Quando você chegou
D9                          A9
  Já tinha muita gente por lá
                                     D9
Aff tá dando um trabalhão pra organizar

[Segunda Parte]

                 Bm7         D9
O coração tava cheio cheio cheio 
             A9                E
Não tinha espaço pra me apaixonar
         
Foi só você me dar 
    Bm7                D9
Um beijo um dengo um cheiro
        A9                D
Pra entrar de vez e bagunçar 

[Pré-Refrão]

                   Bm7  D9
Não aperta o povo não 
          A9               E
Tem mais gente no meu coração 
                Bm7
Mamãe tá no cantinho
   A/C#      D9
Papai apertadinho
      E
Tem amigo indo parar lá no pulmão

[Refrão]

     D9
Tem como ser um pouco menos linda
     A9
Tem como eu ser o dono da minha vida
     C#m7
Tem como não ser assim tão perfeita
      F#m                    E
Já tomou meu coração e tá subindo pra cabeça

     D9
Tem como ser um pouco menos linda
     A9
Tem como eu ser o dono da minha vida
     C#m7
Tem como não ser assim tão perfeita
      F#m                    E
Já tomou meu coração e tá subindo pra cabeça
    D9     A9      C#m7  F#m  E
Aí aí espaçosa demais

[Segunda Parte]

                 Bm7         D9
O coração tava cheio cheio cheio 
             A9                E
Não tinha espaço pra me apaixonar
         
Foi só você me dar 
    Bm7                D9
Um beijo um dengo um cheiro
        A9                D
Pra entrar de vez e bagunçar 

[Pré-Refrão]

                   Bm7  D9
Não aperta o povo não 
          A9               E
Tem mais gente no meu coração 
                Bm7
Mamãe tá no cantinho
   A/C#      D9
Papai apertadinho
      E
Tem amigo indo parar lá no pulmão

[Refrão]

     D9
Tem como ser um pouco menos linda
     A9
Tem como eu ser o dono da minha vida
     C#m7
Tem como não ser assim tão perfeita
      F#m                    E
Já tomou meu coração e tá subindo pra cabeça

     D9
Tem como ser um pouco menos linda
     A9
Tem como eu ser o dono da minha vida
     C#m7
Tem como não ser assim tão perfeita
      F#m                    E
Já tomou meu coração e tá subindo pra cabeça

    D9     A9    
Aí aí espaçosa demais
     C#m7
Espaçosa demais
      F#m                    E
Já tomou meu coração e tá subindo pra cabeça

     D9
Tem como ser um pouco menos linda
     A9
Tem como eu ser o dono da minha vida
     C#m7
Tem como não ser assim tão perfeita
      F#m                    E
Já tomou meu coração e tá subindo pra cabeça

    D9     A9    
Aí aí espaçosa demais
     C#m7
Espaçosa demais
      F#m                    E           D9  A
Já tomou meu coração e tá subindo pra cabeça
Acordes para:
    Composição: Bruno Mandioca / Elvis Elan / Henrique Casttro Colaboração e revisão:
    • Thiago Almeida
    • Allan Keneddy

    0 comentários

    mostrar mais comentários

    Conseguiu tocar?

    1 tocaram 0 ainda não

    Grave um vídeo tocando Espaçosa Demais e mande pra gente!

    00:00 / 00:00
    outros vídeos desta música
    repetir qualidade Automático
    Outros vídeos desta música
    00:00 / 00:00
    Automático
    OK