Cifra Club

Meu Crush

Felipe Araújo

Cifra: Principal (violão e guitarra)
exibições 10.632
Tom: G
[Intro] Em7  D/F#  Am  C

E|-------------------------------------------------5-7~--|
B|----------5-5-5-7-8-7-5---5------------------5-8-------|
G|------------------------7---4-2-2--2-4-5~--7-----------|
D|-5p4-2p0-----------------------------------------------|
A|-------------------------------------------------------|
E|-------------------------------------------------------|

              Em7
Eu não sei dizer
                       D/F#
Como entrou na minha vida
                 Am
Mais foi muito além
              C
Das expectativas
               Em7
Mudou minha rotina
                D/F#
E até o meu sorriso
                Am                C
E o que era só meu com você eu divido

  Am
Pra mim não é tão normal
    Em7
Mas eu tô gostando
    D
Ou será amando
Am                    C
E a minha vida de ponta cabeça
           D
Você tá virando

                  G
Virou meu grude agora a gente não descola
                 D/F#
Virou a noite o dia é 24 horas
               Am
Virou meu amanhã que eu faço planos hoje
             C                 D
Virou até a hashtag do meu post
                  G
Virou meu grude agora a gente não descola
                 D/F#
Virou a noite o dia é 24 horas
            Am
Virou meu amanhã que eu faço planos hoje
             C                 D
Virou até a hashtag do meu post
Meu crush

[Solo] G   D/F#  Am  C  D

E|--------------------------------------------------------|
B|-------5/8-------------------------5/8------------------|
G|-7-7-7------5-4-5-4-5-4-5-7--7-7-7-----4-2-4-2-4-2-4-7--|
D|--------------------------------------------------------|
A|--------------------------------------------------------|
E|--------------------------------------------------------|

E|--------------------------------------------------------------|
B|-5-5-5-5---5---5---5------5-5-5-5---5---5---5--8-7-8-7-8-10~--|
G|---------7---7---7---7-5----------7---7---7-------------------|
D|--------------------------------------------------------------|
A|--------------------------------------------------------------|
E|--------------------------------------------------------------|

              Em7
Eu não sei dizer
                       D/F#
Como entrou na minha vida
                 Am
Mais foi muito além
              C
Das expectativas
               Em7
Mudou minha rotina
                D/F#
E até o meu sorriso
                Am                C
E o que era só meu com você eu divido

  Am
Pra mim não é tão normal
    Em7
Mas eu tô gostando
    D
Ou será amando
Am                    C
E a minha vida de ponta cabeça
           D
Você tá virando

                  G
Virou meu grude agora a gente não descola
                 D/F#
Virou a noite o dia é 24 horas
               Am
Virou meu amanhã que eu faço planos hoje
             C                 D
Virou até a hashtag do meu post
                  G
Virou meu grude agora a gente não descola
                 D/F#
Virou a noite o dia é 24 horas
            Am
Virou meu amanhã que eu faço planos hoje
             C                 D
Virou até a hashtag do meu post
Meu crush

                  G
Virou meu grude agora a gente não descola
                 D/F#
Virou a noite o dia é 24 horas
               Am
Virou meu amanhã que eu faço planos hoje
             C                 D
Virou até a hashtag do meu post
                  G
Virou meu grude agora a gente não descola
                 D/F#
Virou a noite o dia é 24 horas
            Am
Virou meu amanhã que eu faço planos hoje
             C                 D
Virou até a hashtag do meu post
Meu crush

[Solo] G

E|--------------------------------------------------------|
B|-------5/8-------------------------5/8------------------|
G|-7-7-7------5-4-5-4-5-4-5-7--7-7-7-----5-4-5-4-5-4-5-7--|
D|--------------------------------------------------------|
A|--------------------------------------------------------|
E|--------------------------------------------------------|
Acordes para:

    0 comentários

    mostrar mais comentários

    Conseguiu tocar?

    1 tocaram 0 ainda não

    Grave um vídeo tocando Meu Crush e mande pra gente!

    00:00 / 00:00
    outros vídeos desta música
    repetir qualidade Automático
    Outros vídeos desta música
    00:00 / 00:00
    Automático
    OK