Cifra Club

Aprenda

Ordinary World

Fenix TX

Cifra: Principal (violão e guitarra)
Já pensou em usar uma coleção de roupas do Cifra Club? Responda as perguntas abaixo e nos ajude nessa missão! →
tom: C
Legendas:  /   = slide - deslizar
          x... = continue tocando o acorde "x" 
                 até mudar para o acorde seguinte.
           PM  = Palm Mute - Abafado

Intro: 00:01 - Guitarra Base
e|--------------------------------------------------------------------------|
B|--------------------------------------------------------------------------|
G|--4...--------------------------------------------------------------------|
D|--4...--4...---7...--2----------------------------------------------------|
A|--2...--4...---7...--2----------------------------------------------------|
E|--------2...---5...--0----------------------------------------------------|

Intro: 00:09 - Guitarra Solo
e|-------------------------------12-12-12-11-11-11-9-9-9-7-7----------------|
B|--------------------------------------------------------------------------|
G|--------------------------------------------------------------------------|
D|--------------------------------------------------------------------------|
A|--------------------------------------------------------------------------|
E|--------------------------------------------------------------------------|

e|-------------------------------14-14-14-12-12-12-11-11-11-9-9-7---7---7---|
B|------------------------------------------------------------7---7---------|
G|--------------------------------------------------------------------------|
D|--------------------------------------------------------------------------|
A|--------------------------------------------------------------------------|
E|--------------------------------------------------------------------------|

Versos: 00:19 - Came in from the rain... - (x4)
e|--------------------------------------------------------------------------|
B|--------------------------------------------------------------------------|
G|--5...--------------------------------------------------------------------|
D|--5...-3...--x-x-5-x-x-5--------------------------------------------------|
A|--3...-3...--x-x-5-x-x-5--------------------------------------------------|
E|-------1...--x-x-3-x-x-3--------------------------------------------------|

Pre-Refrão: 00:36 - What's happen to it all.. - PM
e|--------------------------------------------------------------------------|
B|--------------------------------------------------------------------------|
G|--5...-----------5...-----------------------------------------------------|
D|--5...-3...-7...-5...-----------------------------------------------------|
A|--3...-3...-7...-3...-----------------------------------------------------|
E|-------1...-5...----------------------------------------------------------|
 
Refrão: 00:45
e|--------------------------------------------------------------------------|
B|--------------------------------------------------------------------------|
G|--4...--------------------------------------------------------------------|
D|--4...--4...---7...--2...-------------------------------------------------|
A|--2...--4...---7...--2...-------------------------------------------------|
E|--------2...---5...--0...-------------------------------------------------|

Ponte: 01:51 
e|--------------------------------------------------------------------------|
B|--------------------------------------------------------------------------|
G|--9-9/8-8/6-6/4-4/11-11/9-9/8-8/6-6/4-4-----------------------------------|
D|--------------------------------------------------------------------------|
A|--7-7/6-6/4-4/2-2/9--9-/7-7/6-6/4-4/2-2-----------------------------------|
E|--------------------------------------------------------------------------|

Pra terminar fique repetindo essa parte até a música acabar. Falow!
Colaboração e revisão:
  • João Cavalcanti
6.011 exibições
    • ½ Tom
    • A
    • Bb
    • B
    • C
    • Db
    • D
    • Eb
    • E
    • F
    • F#
    • G
    • Ab
  • Adicionar à lista

    0 comentários

    Ver todos os comentários

    Conseguiu tocar?

    0 Tocaram 0 Ainda não

    Grave um vídeo tocando Ordinary World e nos envie!

    00:00 / 00:00
    outros vídeos desta música
    repetir qualidade Automático
    Outros vídeos desta música
    00:00 / 00:00
    Automático

    Cifra Club Pro

    Aproveite o Cifra Club com benefícios exclusivos e sem anúncios
    Cifra Club Pro
    Aproveite o Cifra Club com benefícios exclusivos e sem anúncios
    OK