Cifra Club

Aprenda

Threesome

Fenix TX

Cifra: Versão 3 (violão e guitarra)
Já pensou em usar uma coleção de roupas do Cifra Club? Responda as perguntas abaixo e nos ajude nessa missão! →
tom: A
Tabb BY: Daniel "Arnni" Greenwood
comments: Thanks to Brian Saia For the cords, he help me :)
I like to say UG has gave me great tabs and i hope they make a drum section?
And final comments to the band i'm in called locker42 and to Tim Lindley \m/
Rock on \m/


Intro
E-------------------------------------------------------------------
B-------------------------------------------------------------------
G----77----------------77------------77----------77-----------------
D----77----------------77------------77----------77-----------------
A----55----------------55------------55----------55-----------------
E----xx----------------xx------------xx----------xx-----------------

Verse 1
E-------------------------------------------------------------------
B-------------------------------------------------------------------
G----77----------------77------------77-----------------------------
D----77----------------77------------77-----------------------------
A----55----------------55------------55-----------------------------
E----xx----------------xx------------xx-----------------------------
     And if there's nothing left to say

E-------------------------------------------------------------------
B-------------------------------------------------------------------
G----77-------------------------------------------------------------
D----77-----------99----------99-----------99-----------------------
A----55-----------99----------99-----------99-----------------------
E----xx-----------77----------77-----------77-----------------------
     I'll string you along until I get my way

E-------------------------------------------------------------------
B-------------------------------------------------------------------
G----77-------------77---------77-----------------------------------
D----77-------------77---------77-----------------------------------
A----55-------------55---------55-----------------------------------
E----xx-------------xx---------xx-----------------------------------
     Use all those subtle inquiries

E-------------------------------------------------------------------
B-------------------------------------------------------------------
G----77-------------------------------------------------------------
D----77-----------99----------99-----------99-------9---------------
A----55-----------99----------99-----------99-------9-let Ring
E----xx-----------77----------77-----------77-------7---------------
     Like      I wanna  know if you aim to please
Chorus
(Normal Strumes)                              (back to Dur- Dur strumes)
E-------------------------------------------|----------------------------
B-------------------------------------------|----------------------------
G-------------------------------------------|------------77---77---77--7-
D------7------------------------------------|------------77---77---77--7-
A------7------------------------------------|------------55---55---55--5-
E------5------------------------------------|------------xx---xx---xx--x-
  and if you wanna dance, she wants to lead    I won't mind

(Normal Strumes)
E----------------------------------------------------------------
B----------------------------------------------------------------
G----------------------------------------------------------------
D--7-------------------------------9------------------------------
A--5-------------------------------9------------------------------
E--x-------------------------------7------------------------------
  Let's try this all again, only faster now


E----------------------------------------------------------------
B----------------------------------------------------------------
G----------------------------------------------------------------
D--7--------------------------------9----------------------------
A--5--------------------------------9----------------------------
E--x--------------------------------7----------------------------
  Now go ahead and pretend, I'm your master now

E----------------------------------------------------------------
B----------------------------------------------------------------
G----------------------------------------------------------------
D----------7-----------------------------------------------------
A----------7-----------------------------------------------------
E----------5-----------------------------------------------------
   And if you wanna dance, she wants to lead

E----------------------------------------------------------------
B----------------------------------------------------------------
G----------------------------------------------------------------
D----------7--------------------9--------------------------------
A----------5--------------------9--------------------------------
E----------x--------------------7---------------------------------
   I'll go out of my way, i'll do anything
E------------------------------------------|----------------------
B------------------------------------------|----------------------
G------------------------------------------|----------------------
D----------7--------7----------------------|---77----77----77-----
A----------7--------5----------------------|---55----55----55-----
E----------5--------x----------------------|---xx----xx----xx-----
   And one word is all I need

Verse 2
   

    And If 

E-------------------------------------------------------------------
B-------------------------------------------------------------------
G----77----------------77------------77-----------------------------
D----77----------------77------------77-----------------------------
A----55----------------55------------55-----------------------------
E----xx----------------xx------------xx-----------------------------
     You know it's all in your mind


E-------------------------------------------------------------------
B-------------------------------------------------------------------
G----77-------------------------------------------------------------
D----77-----------99----------99-----------99-----------------------
A----55-----------99----------99-----------99-----------------------
E----xx-----------77----------77-----------77-----------------------
     Take your    time  with   this   one

E-------------------------------------------------------------------
B-------------------------------------------------------------------
G----77-------------77---------77-----------------------------------
D----77-------------77---------77-----------------------------------
A----55-------------55---------55-----------------------------------
E----xx-------------xx---------xx-----------------------------------
     You both deserve a good time


E-------------------------------------------------------------------
B-------------------------------------------------------------------
G----77-------------------------------------------------------------
D----77-----------99----------99-----------99----7------------------
A----55-----------99----------99-----------99----7-let Ring---------
E----xx-----------77----------77-----------77----9------------------
     In every position that I can think of

Chorus
(Normal Strumes)
E----------------------------------------------------------------
B----------------------------------------------------------------
G----------------------------------------------------------------
D----------7-----------------------------------------------------
A----------7-----------------------------------------------------
E----------5-----------------------------------------------------
   And if you wanna dance, she wants to lead

E----------------------------------------------------------------
B----------------------------------------------------------------
G----------------------------------------------------------------
D----------7--------------------9--------------------------------
A----------5--------------------9--------------------------------
E----------x--------------------7---------------------------------
   I'll go out of my way, i'll do anything
E------------------------------------------|----------------------
B------------------------------------------|----------------------
G------------------------------------------|----------------------
D----------7--------7----------------------|---7Let-ring----------
A----------7--------5----------------------|---5------------------
E----------5--------x----------------------|---x------------------
   And one word is all I need

(Normal Strumes)
E----------------------------------------------------------------
B----------------------------------------------------------------
G----------------------------------------------------------------
D--7-------------------------------9------------------------------
A--5-------------------------------9------------------------------
E--x-------------------------------7------------------------------
  Let's try this all again, only faster now


E----------------------------------------------------------------
B----------------------------------------------------------------
G----------------------------------------------------------------
D--7--------------------------------9----------------------------
A--5--------------------------------9----------------------------
E--x--------------------------------7----------------------------
  Now go ahead and pretend, I'm your master now

E----------------------------------------------------------------
B----------------------------------------------------------------
G----------------------------------------------------------------
D----------7-----------------------------------------------------
A----------7-----------------------------------------------------
E----------5-----------------------------------------------------
   And if you wanna dance, she wants to lead

E----------------------------------------------------------------
B----------------------------------------------------------------
G----------------------------------------------------------------
D----------7--------------------9--------------------------------
A----------5--------------------9--------------------------------
E----------x--------------------7---------------------------------
   I'll go out of my way, i'll do anything

E------------------------------------------|----------------------
B------------------------------------------|----------------------
G------------------------------------------|----------------------
D----------7--------7----------------------|---77----77----77-----
A----------7--------5----------------------|---55----55----55-----
E----------5--------x----------------------|---xx----xx----xx-----
   And one word is all I need
Compositor não encontrado.
166 exibições
    • ½ Tom
    • A
    • Bb
    • B
    • C
    • Db
    • D
    • Eb
    • E
    • F
    • F#
    • G
    • Ab
  • Adicionar à lista

    0 comentários

    Ver todos os comentários

    Conseguiu tocar?

    0 Tocaram 0 Ainda não

    Grave um vídeo tocando Threesome e nos envie!

    00:00 / 00:00
    Outros vídeos desta música
    Repetir Qualidade Automático
    Outros vídeos desta música
    00:00 / 00:00
    Automático

    Cifra Club Pro

    Aproveite o Cifra Club com benefícios exclusivos e sem anúncios
    Cifra Club Pro
    Aproveite o Cifra Club com benefícios exclusivos e sem anúncios
    OK