Cifra Club

Em Tua Presença

Fernanda Brum

Cifra: Principal
exibições 260.631
Tom: B
[Intro] E F# G#m/D# E G#m/D#
        E F# G#m/D#
        E F# G#m C#m7/G# G#m C#m7/G# G#m
        E F# G#m C#m7/G# G#m C#m7/G# G#m F#/A#

E|----------------------------------------------------|
B|--7~9--11--12--14--9--9~7-----------7--------7------|
G|-------------------------6--6~8--6---6~8--6---6~8---|
D|----------------------------------------------------|
A|----------------------------------------------------|
E|----------------------------------------------------|

E|----------------------------------------------------|
B|--7~9--11--12--14--9--9~7-----------7--------7------|
G|-------------------------6--6~8--6---6~8--6---6~8---|
D|----------------------------------------------------|
A|----------------------------------------------------|
E|----------------------------------------------------|

  B9                 G#m7               E
Existe um lugar, na fenda da rocha, bem junto a ti
B/D#  C#m7             F#4/6  F#  E/G# F#/A#
  Em tua presença, em tua presença
  B9               G#m7             E
Existe um lugar, aconchegado ao teu coração                                                                                    B/D#      C#m7            F#4/6  F#
   Em tua presença, em tua presença
  C#m7                               F#4       F#
Existe um lugar, onde o orgulho não vai me seduzir
C#m7                                       F#4         F#
Onde o dinheiro, a fama, os aplausos, não podem me comprar

         B          F#                G#m   E
Em tua presença Senhor, em tua presença Senhor
         G#m7            F#6
Eu quero estar, e mergulhar
     C#m7                     F#4
Descansar em teus braços de amor
    F#     B        F#            G#m      E
Em tua presença Senhor, em tua presença Senhor
             G#m               F#6
Vou me esconder, tu és meu prazer
    C#m7               F#                   E
Em tua presença é o lugar onde eu quero habitar

[E F# G#m C#m7/G# G#m C#m7/G# G#m]
[E F# G#m C#m7/G# G#m C#m7/G# G#m F#/A#]
Acordes para:
    Colaboração e revisão:
    • marcos filipe
    • Ariosto Pimenta)
    • Matheus Souza

    0 comentários

      mostrar mais comentários

      Conseguiu tocar?

      12tocaram0ainda não

      Grave um vídeo tocando Em Tua Presença e mande pra gente!

      00:00 / 00:00
      outros vídeos desta música
      repetirqualidadeautomática
      Outro vídeos desta música
        00:00 / 00:00
        automática
        OK