Cifra Club

Dançar Na Chuva

Fernandinho

Tab de baixo: Principal
exibições 84.986
Primeiro entra apenas a guitar, depois da virada da bateria entra o baixo.

(intro)
G-------------------------------------------------------------------------------|
D--------------753-------------753-------------753--------------6-5---5-65------|
A--555555555555---3555555555555---3555555555555---3555555555555-----7------3-5--|
E-------------------------------------------------------------------------------|

(verso)

''Novos caminhos para andar... O deserto não é o meu lugar...'' 
G--------------------------------------------------------------|
D--------------------------------------------------------------| (2x)
A--55555555555555555555555555555555555555...-------------------|
E-------------------------------------------33333333333333...--|

(Refrão)

''Nova criatura sou, velho homem já morreu...''
G-----------------------------------------------------------------|
D-----------------------------------------------------------------| (2x)
A--55555555-------------------------------------------------------|
E----------555555557777777755555555-3-5-7-2-3-5-0000000055555555--|

(passagem)

''Eu vou dançar na chuva''
G-----------------------|
D-----------------------| (2x)
A-----------------------|
E--77910-77910-77910-7--|

(solo)

(1ª parte)
G-----------------------|                                       
D-----------------7h9---| (6x)                                          
A------7h9--------------| 
E--77--------77---------|                                       

(2ª parte)
G---------------------------------|
D---99---9-88---8-77---7-66----7--|
A------9------9------9-------9----|(parte aguda 5x)
E---------------------------------|

Depois da parte aguda vem a parte grave... em que as notas serão as mesmas mudando apenas as cordas!

(3ª parte)
G---------------------------------|
D---------------------------------|
A---77---7-66---6-55---5---44---5-|(parte grave 3x)
E------7------7------7-------7----|




obs: Não importa a região do braço(contra-baixo) em que se está fazendo o solo!! O importante é usar o desenho certo e as notas certas! Paz do Senhor amados...

0 comentários

    mostrar mais comentários

    Conseguiu tocar?

    13tocaram0ainda não

    Grave um vídeo tocando Dançar Na Chuva e mande pra gente!

    00:00 / 00:00
    outros vídeos desta música
    repetirqualidadeautomática
    Outro vídeos desta música
      00:00 / 00:00
      automática
      OK