Cifra Club

Dançar Na Chuva

Fernandinho

Tab de baixo: Principal
exibições 90.340
[Introdução]

Parte 1 de 3
G|----------------------------------------------|
D|----------------------------6-5-3-------------|
A|----------------------------------3-5---------|
E|----------------------------------------------|
B|-3-3-3-3--3-3-3-3--3-3-3-3--------------------|

Parte 2 de 3 (2x)
G|----------------------------------------------|
D|-------------------------6-5-3----------------|
A|-------------------------------3-5------------|
E|----------------------------------------------|
B|-3-3-3--3-3-3-3--3-3-3-3----------------------|

Parte 3 de 3
G|----------------------------------------------|
D|------------------5/6-5-3---5/6-5-3-----------|
A|--------------------------5-------------------|
E|----------------------------------------------|
B|-3-3-3--3-3-3-----------------------3---------|


[Primeira parte - somente vocal]

[Refrão]

Nova criatura sou...

Parte 1 de 5
G|----------------------------------------------|
D|----------------------------------------------|
A|----------------------------------------------|
E|------------------------3/5-5--5-5-5--5-5-5-5-|
B|-12\--3-3-3-3--3-3-3-3------------------------|

G|----------------------------------------------|
D|----------------------------------------------|
A|----------------------------------------------|
E|-7-7-7-7--7-7-7-7-----------------------------|
B|----------------------------------------------|

Parte 2 de 5
G|----------------------------------------------|
D|----------------------------------------------|
A|----------------------------------------------|
E|-5-5-5-5--5-5-5-5--3-3-3-3--3-3-3-3-----------|
B|----------------------------------------------|

G|----------------------------------------------|
D|----------------------------------------------|
A|----------------------------------------------|
E|-2-2-2-2--2-2-2-2--0-0-0-0--0-0-0-0-----------|
B|----------------------------------------------|

G|----------------------------------------------|
D|----------------------------------------------|
A|----------------------------------------------|
E|-3/5-5-5-5--5-5-5-5---------------------------|
B|----------------------------------------------|

Parte 3 de 5
G|----------------------------------------------|
D|----------------------------------------------|
A|----------------------------------------------|
E|-------------------3/5-5--5-5-5--5-5-5-5-----|
B|-3-3-3-3--3-3-3-3-----------------------------|

G|----------------------------------------------|
D|----------------------------------------------|
A|----------------------------------------------|
E|-7-7-7-7--7-7-7-7-----------------------------|
B|----------------------------------------------|

Parte 4 de 5
G|----------------------------------------------|
D|----------------------------------------------|
A|----------------------------------------------|
E|-5-5-5-5--5-5-5-5--3-3-3-3--3-3-5-3-----------|
B|----------------------------------------------|

G|----------------------------------------------|
D|----------------------------------------------|
A|----------------------------------------------|
E|-2-2-2-2--2-2-2-2--0-0-0-0--0-0-0-0--5--------|
B|----------------------------------------------|

Parte 5 de 5 (2x)
G|----------------------------------------------|
D|----------------------------------------------|
A|-2-2-4-5--2-2-4-5--2-2-4-5--2-2--2-2-2-2-2-2--|
E|----------------------------------------------|
B|----------------------------------------------|

G|----------------------------------------------|
D|----------------------------------------------|
A|-2-2-4-5--2-2-4-5--2--------------------------|
E|----------------------------------------------|
B|----------------------------------------------|


[Introdução 2]

Parte 1 de 2 (3x) 
G|----------------------------------------------|
D|----------------------------6-5-3-------------|
A|-5-5-5-5--5-5-5-5--5-5-5-5--------3-5---------|
E|----------------------------------------------|
B|----------------------------------------------|

Parte 2 de 2 
G|----------------------------------------------|
D|------------------5/6-5-3---5/6-5-------------|
A|-5-5-5--5-5-5-5-----------5-------3-----------|
E|----------------------------------------------|
B|----------------------------------------------|

[Segunda Parte]

Novo caminho para andar...

Parte 1 de 4
G|----------------------------------------------|
D|----------------------------------------------|
A|-5-5-5-5--5-5-5-5--5-5-5-5--5-5-5-5/----------|
E|----------------------------------------------|
B|----------------------------------------------|

G|----------------------------------------------|
D|-12-12-12-12--12-12-12-12--12-12-12-12--------|
A|----------------------------------------------|
E|----------------------------------------------|
B|----------------------------------------------|

G|----------------------------------------------|
D|-12-12-12-12\---------------------------------|
A|----------------------------------------------|
E|----------------------------------------------|
B|----------------------------------------------|

Parte 2 de 4
G|----------------------------------------------|
D|----------------------------------------------|
A|-5-5-5-5--5-5-5-5--5-5-5-5--5-5-5-5-----------|
E|----------------------------------------------|
B|----------------------------------------------|

G|----------------------------------------------|
D|--------------------------4/5-4---5-4---------|
A|--------------------------------5-------------|
E|-3-3-3-3--3-3-3-3--3-3-3----------------------|
B|----------------------------------------------|

Parte 3 de 4
G|----------------------------------------------|
D|----------------------------------------------|
A|-5-5-5-5--5-5-5-5--5-5-5-5--5-5-5-5/----------|
E|----------------------------------------------|
B|----------------------------------------------|

G|-----------9--7-9-9--9-7-9-9-7-9--------------|
D|-12-12-12-------------------------------------|
A|----------------------------------------------|
E|----------------------------------------------|
B|----------------------------------------------|

Parte 4 de 4
G|----------------------------------------------|
D|----------------------------------------------|
A|-5-5-5-5--5-5-5-5--5-5-5-5--5-5-5-5-----------|
E|----------------------------------------------|
B|----------------------------------------------|

G|----------------------------------------------|
D|----------------------------------------------|
A|----------------------------------------------|
E|-3-3-3-3--3-3-3-3--3-3-3-3--3-3-3-3-----------|
B|----------------------------------------------|


[Refrão 2]

Nova criatura sou...

Parte 1 de 6
G|----------------------------------------------|
D|----------------------------------------------|
A|-5-5-5-5--5-5-5-5-----------------------------|
E|-------------------5-5-5-5--5-5-5-3-----------|
B|----------------------------------------------|

G|----------------------------------------------|
D|----------------------------------------------|
A|----------------------------------------------|
E|-7-7-7-7--7-7-7-7--5-5-5-5--5-5-5-5-----------|
B|----------------------------------------------|

Parte 2 de 6
G|----------------------------------------------|
D|----------------------------------------------|
A|----------------------------------------------|
E|-3-3-3-3--3-3-3-3--2-2-2-2--2-2-2-2-----------|
B|----------------------------------------------|

G|----------------------------------------------|
D|----------------------------------------------|
A|----------------------------------------------|
E|-0-0-0-0--0-0-0-0--3/5-5-5-5--5-5-5-5---------|
B|----------------------------------------------|

Parte 3 de 6
G|----------------------------------------------|
D|----------------------------------------------|
A|-5-5-5-5--5-5-5-5-----------------------------|
E|-------------------5-5-5-5--5-5-5-5-----------|
B|----------------------------------------------|

G|----------------------------------------------|
D|----------------------------------------------|
A|----------------------------------------------|
E|-7-7-7-7--7-7-7-7--5-5-5-5--5-5-5-5-----------|
B|----------------------------------------------|

Parte 4 de 6
G|----------------------------------------------|
D|----------------------------------------------|
A|----------------------------------------------|
E|-3-3-3-3--3-3-5-3--2-2-2-2--2-2-2-2-----------|
B|----------------------------------------------|

G|----------------------------------------------|
D|----------------------------------------------|
A|----------------------------------------------|
E|-0-0-0-0--0-0-0-0--5--------------------------|
B|----------------------------------------------|

Parte 5 de 6 (2x)
G|----------------------------------------------|
D|----------------------------------------------|
A|-2-2-4-5--2-2-4-5--2-2-4-5--2-2--2-2-2-2-2-2--|
E|----------------------------------------------|
B|----------------------------------------------|

G|----------------------------------------------|
D|----------------------------------------------|
A|-2-2-4-5--2-2-4-5--2--------------------------|
E|----------------------------------------------|
B|----------------------------------------------|

Parte 6 de 6
G|----------------------------------------------|
D|----------------------------------------------|
A|-2--------------------------------------------|
E|----------------------------------------------|
B|--0-------------------------------------------|


[Terceira parte]

Parte 1 de 4
G|-------------2-4-------------2-4--------------|
D|-----2-4-------------2-4-------------2-4------|
A|-2-2-----2-2-----2-2-----2-2-----2-2----------|
E|----------------------------------------------|
B|----------------------------------------------|

G|-----2-4-------------2-4-------------2-4------|
D|-------------2-4-------------2-4--------------|
A|-2-2-----2-2-----2-2-----2-2-----2-2----------|
E|----------------------------------------------|
B|----------------------------------------------|

G|----------------------------------------------|
D|-----2-4------2-4/----------------------------|
A|-2-2------2-2---------------------------------|
E|----------------------------------------------|
B|----------------------------------------------|

Parte 2 de 4 (5x)
G|----------------------------------------------|
D|--9-9---9-8-8---8-7-7---7-6-6-----------------|
A|------9-------9-------7-------9-7-------------|
E|----------------------------------------------|
B|----------------------------------------------|

Parte 3 de 4 (3x)
G|----------------------------------------------|
D|----------------------------------------------|
A|----------------------------------------------|
E|-7-7---7-6-6---6-5-5---5-4-4------------------|
B|-----7-------7-------5-------7-5--------------|

Parte 4 de 4
G|----------------------------------------------|
D|----------------------------------------------|
A|----------------------------------------------|
E|-7-0-0-7-0-0-7-0-0-7-0-0-7-7------------------|
B|----------------------------------------------|

G|----------------------------------------------|
D|----------------------------------------------|
A|-2-2-4-5--2-2-4-5--2-2-4-5--2-2-4-5--2-2-4-5--|
E|----------------------------------------------|
B|----------------------------------------------|

G|----------------------------------------------|
D|----------------------------------------------|
A|-2-2-4-5--2-2-4-5--2-2-4-5--------------------|
E|----------------------------------------------|
B|----------------------------3-----------------|


[Refrão 3 - Final]

Nova criatura sou...

Parte 1 de 3
G|----------------------------------------------|
D|----------------------------------------------|
A|----------------------------------------------|
E|-7-7-7-7--7-7-7-7--5-5-5-5--5-5-5-5/----------|
B|----------------------------------------------|

G|----------------------------------------------|
D|----------------------------------------------|
A|-10-10-10-10--10-10-12--10-9-9-9--9-9-9-9-9---|
E|----------------------------------------------|
B|----------------------------------------------|

G|----------------------------------------------|
D|----------------------------------------------|
A|-7-7-7-7--7-7-7-7-----------------------------|
E|-------------------5-5-5-5--5-5-5-5-----------|
B|----------------------------------------------|

Parte 2 de 3
G|----------------------------------------------|
D|----------------------------------------------|
A|----------------------------------------------|
E|-------------------3/5-5--5-5-5--5-5-5-5------|
B|-3-3-3-3--3-3-3-3-----------------------------|

G|----------------------------------------------|
D|----------------------------------------------|
A|----------------------------------------------|
E|-7-7-7-7--7-7-7-7-----------------------------|
B|----------------------------------------------|

Parte 3 de 3
G|----------------------------------------------|
D|----------------------------------------------|
A|----------------------------------------------|
E|-5-5-5-5--5-5-5-5--3-3-3-3--3-3-3-0-----------|
B|----------------------------------------------|

G|----------------------------------------------|
D|----------------------------------------------|
A|----------------------------------------------|
E|-2-2-2-2--2-2-2-2--0-0-0-0--0-0-0-0--5--------|
B|----------------------------------------------|

G|----------------------------------------------|
D|----------------------------------------------|
A|----------------------------------------------|
E|----------------------------------------------|
B|-0---0-0-0-0-....................0------------|

0 comentários

mostrar mais comentários

Conseguiu tocar?

13 tocaram 0 ainda não

Grave um vídeo tocando Dançar Na Chuva e mande pra gente!

00:00 / 00:00
outros vídeos desta música
repetir qualidade Automático
Outro vídeos desta música
00:00 / 00:00
Automático
Capítulos
  • Tocando a música
  • Apresentação / Equipamentos
  • TAB - Introdução - Parte 1 de 3
  • TAB - Introdução - Parte 2 de 3
  • TAB - Introdução - Parte 3 de 3
  • TAB - Refrão Parte 1 de 5
  • TAB - Refrão Parte 2 de 5
  • TAB - Refrão Parte 3 de 5
  • TAB - Refrão Parte 4 de 5
  • TAB - Refrão Parte 5 de 5
  • TAB - Introdução 2 - Parte 1 de 2
  • TAB - Introdução 2 - Parte 2 de 2
  • TAB - Segunda Parte - Parte 1 de 4
  • TAB - Segunda Parte - Parte 2 de 4
  • TAB - Segunda Parte - Parte 3 de 4
  • TAB - Segunda Parte - Parte 4 de 4
  • TAB - Refrão 2 - Parte 1 de 6
  • TAB - Refrão 2 - Parte 2 de 6
  • TAB - Refrão 2 - Parte 3 de 6
  • TAB - Refrão 2 - Parte 4 de 6
  • TAB - Refrão 2 - Parte 5 de 6
  • TAB - Refrão 2 - Parte 6 de 6
  • TAB - Terceira Parte - Parte 1 de 4
  • TAB - Terceira Parte - Parte 2 de 4
  • TAB - Terceira Parte - Parte 3 de 4
  • TAB - Terceira Parte - Parte 4 de 4
  • TAB - Refrão - Parte 1 de 3
  • TAB - Refrão - Parte 2 de 3
  • TAB - Refrão - Parte 3 de 3
  • Encerramento
OK