Cifra Club

Dançar Na Chuva

Fernandinho

Tab de baixo: Principal
exibições 85.374
Introdução

Parte 01 de 03

G|----------------------------------------------|
D|----------------------------6-5-3-------------|
A|----------------------------------3-5---------|
E|----------------------------------------------|
B|-3-3-3-3--3-3-3-3--3-3-3-3--------------------|

Parte 02 de 03 ( tocar 2x )

G|----------------------------------------------|
D|-------------------------6-5-3----------------|
A|-------------------------------3-5------------|
E|----------------------------------------------|
B|-3-3-3--3-3-3-3--3-3-3-3----------------------|

Parte 03 de 03

G|----------------------------------------------|
D|------------------5/6-5-3---5/6-5-3-----------|
A|--------------------------5-------------------|
E|----------------------------------------------|
B|-3-3-3--3-3-3-----------------------3---------|

Primeira parte ( Só voz )

Refrão 

Nova criatura sou...

Parte 01 de 05

G|----------------------------------------------|
D|----------------------------------------------|
A|----------------------------------------------|
E|----------------------------------------------|
B|-12\--3-3-3-3--3-3-3-3--3/5-5-5-5--5-5-5-5----|

G|----------------------------------------------|
D|----------------------------------------------|
A|----------------------------------------------|
E|-7-7-7-7--7-7-7-7-----------------------------|
B|----------------------------------------------|
Parte 02 de 05

G|----------------------------------------------|
D|----------------------------------------------|
A|----------------------------------------------|
E|-5-5-5-5--5-5-5-5--3-3-3-3--3-3-3-3-----------|
B|----------------------------------------------|

G|----------------------------------------------|
D|----------------------------------------------|
A|----------------------------------------------|
E|-2-2-2-2--2-2-2-2--0-0-0-0--0-0-0-0-----------|
B|----------------------------------------------|

G|----------------------------------------------|
D|----------------------------------------------|
A|----------------------------------------------|
E|-3/5-5-5-5--5-5-5-5---------------------------|
B|----------------------------------------------|

Parte 03 de 05

G|----------------------------------------------|
D|----------------------------------------------|
A|----------------------------------------------|
E|----------------------------------------------|
B|-3-3-3-3--3-3-3-3--3-3-3-3--3-3-3-3-----------|

G|----------------------------------------------|
D|----------------------------------------------|
A|----------------------------------------------|
E|-3/5-5-5-5--5-5-5-5--7-7-7-7--7-7-7-7---------|
B|----------------------------------------------|

Parte 04 de 05

G|----------------------------------------------|
D|----------------------------------------------|
A|----------------------------------------------|
E|-5-5-5-5--5-5-5-5--3-3-3-3--3-3-5-3-----------|
B|----------------------------------------------|

G|----------------------------------------------|
D|----------------------------------------------|
A|----------------------------------------------|
E|-2-2-2-2--2-2-2-2--0-0-0-0--0-0-0-0--5--------|
B|----------------------------------------------|

Parte 05 de 05 ( tocar 2x )

G|----------------------------------------------|
D|----------------------------------------------|
A|-2-2-4-5--2-2-4-5--2-2-4-5--2-2--2-2-2-2-2-2--|
E|----------------------------------------------|
B|----------------------------------------------|

G|----------------------------------------------|
D|----------------------------------------------|
A|-2-2-4-5--2-2-4-5--2--------------------------|
E|----------------------------------------------|
B|----------------------------------------------|

Introdução 02

Parte 01 de 02 ( tocar 3x ) 

G|----------------------------------------------|
D|----------------------------6-5-3-------------|
A|-5-5-5-5--5-5-5-5--5-5-5-5--------3-5---------|
E|----------------------------------------------|
B|----------------------------------------------|

Parte 02 de 02 

G|----------------------------------------------|
D|------------------5/6-5-3---5/6-5-3-----------|
A|-5-5-5--5-5-5-5-----------5-------------------|
E|----------------------------------------------|
B|----------------------------------------------|

Segunda Parte

Novo caminho para andar...

Parte 01 de 04

G|----------------------------------------------|
D|----------------------------------------------|
A|-5-5-5-5--5-5-5-5--5-5-5-5--5-5-5-5/----------|
E|----------------------------------------------|
B|----------------------------------------------|

G|----------------------------------------------|
D|-12-12-12-12--12-12-12-12--12-12-12-12--------|
A|----------------------------------------------|
E|----------------------------------------------|
B|----------------------------------------------|

G|----------------------------------------------|
D|-12-12-12-12\---------------------------------|
A|----------------------------------------------|
E|----------------------------------------------|
B|----------------------------------------------|

Parte 02 de 04

G|----------------------------------------------|
D|----------------------------------------------|
A|-5-5-5-5--5-5-5-5--5-5-5-5--5-5-5-5-----------|
E|----------------------------------------------|
B|----------------------------------------------|

G|----------------------------------------------|
D|--------------------------4/5-4---5-4---------|
A|--------------------------------5-------------|
E|-3-3-3-3--3-3-3-3--3-3-3----------------------|
B|----------------------------------------------|

Parte 03 de 04

G|----------------------------------------------|
D|----------------------------------------------|
A|-5-5-5-5--5-5-5-5--5-5-5-5--5-5-5-5/----------|
E|----------------------------------------------|
B|----------------------------------------------|

G|-----------7--5-7-7--7-5-7-7-5-7--------------|
D|-12-12-12-------------------------------------|
A|----------------------------------------------|
E|----------------------------------------------|
B|----------------------------------------------|

Parte 04 de 04

G|----------------------------------------------|
D|----------------------------------------------|
A|-5-5-5-5--5-5-5-5--5-5-5-5--5-5-5-5-----------|
E|----------------------------------------------|
B|----------------------------------------------|

G|----------------------------------------------|
D|----------------------------------------------|
A|----------------------------------------------|
E|-3-3-3-3--3-3-3-3--3-3-3-3--3-3-3-3-----------|
B|----------------------------------------------|

Refrão 02

Nova criatura sou...

Parte 01 de 06

G|----------------------------------------------|
D|----------------------------------------------|
A|-5-5-5-5--5-5-5-5-----------------------------|
E|-------------------5-5-5-5--5-5-5-3-----------|
B|----------------------------------------------|

G|----------------------------------------------|
D|----------------------------------------------|
A|----------------------------------------------|
E|-7-7-7-7--7-7-7-7--5-5-5-5--5-5-5-5-----------|
B|----------------------------------------------|

Parte 02 de 06

G|----------------------------------------------|
D|----------------------------------------------|
A|----------------------------------------------|
E|-3-3-3-3--3-3-3-3--2-2-2-2--2-2-2-2-----------|
B|----------------------------------------------|

G|----------------------------------------------|
D|----------------------------------------------|
A|----------------------------------------------|
E|-0-0-0-0--0-0-0-0--3/5-5-5-5--5-5-5-5---------|
B|----------------------------------------------|

Parte 03 de 06

G|----------------------------------------------|
D|----------------------------------------------|
A|-5-5-5-5--5-5-5-5-----------------------------|
E|-------------------5-5-5-5--5-5-5-5-----------|
B|----------------------------------------------|

G|----------------------------------------------|
D|----------------------------------------------|
A|----------------------------------------------|
E|-7-7-7-7--7-7-7-7--5-5-5-5--5-5-5-5-----------|
B|----------------------------------------------|

Parte 04 de 06

G|----------------------------------------------|
D|----------------------------------------------|
A|----------------------------------------------|
E|-3-3-3-3--3-3-5-3--2-2-2-2--2-2-2-2-----------|
B|----------------------------------------------|

G|----------------------------------------------|
D|----------------------------------------------|
A|----------------------------------------------|
E|-0-0-0-0--0-0-0-0--5--------------------------|
B|----------------------------------------------|

Parte 05 de 06 ( tocar 2x )

G|----------------------------------------------|
D|----------------------------------------------|
A|-2-2-4-5--2-2-4-5--2-2-4-5--2-2--2-2-2-2-2-2--|
E|----------------------------------------------|
B|----------------------------------------------|

G|----------------------------------------------|
D|----------------------------------------------|
A|-2-2-4-5--2-2-4-5--2--------------------------|
E|----------------------------------------------|
B|----------------------------------------------|

Parte 06 de 06

G|----------------------------------------------|
D|----------------------------------------------|
A|----------------------------------------------|
E|-2--------------------------------------------|
B|----------------------------------------------|

Terceira parte

Parte 01 de 04

G|-------------2-4-------------2-4--------------|
D|-----2-4-------------2-4-------------2-4------|
A|-2-2-----2-2-----2-2-----2-2-----2-2----------|
E|----------------------------------------------|
B|----------------------------------------------|

G|-----2-4-------------2-4-------------2-4------|
D|-------------2-4-------------2-4--------------|
A|-2-2-----2-2-----2-2-----2-2-----2-2----------|
E|----------------------------------------------|
B|----------------------------------------------|

G|----------------------------------------------|
D|----------------------------------------------|
A|-----2-4------2-4/----------------------------|
E|-2-2------2-2---------------------------------|
B|----------------------------------------------|

Parte 02 de 04 ( tocar 05 vezes )

G|----------------------------------------------|
D|--9-9---9-8-8---8-7-7---7-6-6-----------------|
A|------9-------9-------7-------9-7-------------|
E|----------------------------------------------|
B|----------------------------------------------|

Parte 03 de 04 ( tocar 03 vezes )

G|----------------------------------------------|
D|----------------------------------------------|
A|----------------------------------------------|
E|-7-7---7-6-6---6-5-5---5-4-4------------------|
B|-----7-------7-------5-------7-5--------------|

Parte 04 de 04

G|----------------------------------------------|
D|----------------------------------------------|
A|----------------------------------------------|
E|-7-0-0-7-0-0-7-0-0-7-0-0-7-7------------------|
B|----------------------------------------------|

G|----------------------------------------------|
D|----------------------------------------------|
A|-2-2-4-5--2-2-4-5--2-2-4-5--2-2-4-5--2-2-4-5--|
E|----------------------------------------------|
B|----------------------------------------------|

G|----------------------------------------------|
D|----------------------------------------------|
A|-2-2-4-5--2-2-4-5--2-2-4-5--------------------|
E|----------------------------------------------|
B|----------------------------3-----------------|

Refrão 03 ( Final )

Nova criatura sou...

Parte 01 de 03

G|----------------------------------------------|
D|----------------------------------------------|
A|----------------------------------------------|
E|-7-7-7-7--7-7-7-7--5-5-5-5--5-5-5-5/----------|
B|----------------------------------------------|

G|----------------------------------------------|
D|----------------------------------------------|
A|-10-10-10-10--10-10-12--9-9-9-9--9-9-9-9------|
E|----------------------------------------------|
B|----------------------------------------------|

G|----------------------------------------------|
D|----------------------------------------------|
A|-7-7-7-7--7-7-7-7-----------------------------|
E|-------------------5-5-5-5--5-5-5-5-----------|
B|----------------------------------------------|

Parte 02 de 03

G|----------------------------------------------|
D|----------------------------------------------|
A|----------------------------------------------|
E|----------------------------------------------|
B|-3-3-3-3--3-3-3-3--3-3-3-3--3-3-3-3-----------|

G|----------------------------------------------|
D|----------------------------------------------|
A|----------------------------------------------|
E|-3/5-5-5-5--5-5-5-5--7-7-7-7--7-7-7-7---------|
B|----------------------------------------------|

Parte 03 de 03

G|----------------------------------------------|
D|----------------------------------------------|
A|----------------------------------------------|
E|-5-5-5-5--5-5-5-5--3-3-3-3--3-3-3-0-----------|
B|----------------------------------------------|

G|----------------------------------------------|
D|----------------------------------------------|
A|----------------------------------------------|
E|-2-2-2-2--2-2-2-2--0-0-0-0--0-0-0-0--5--------|
B|----------------------------------------------|

G|----------------------------------------------|
D|----------------------------------------------|
A|----------------------------------------------|
E|----------------------------------------------|
B|-0---0-0-0-0-....................0------------|

0 comentários

    mostrar mais comentários

    Conseguiu tocar?

    13tocaram0ainda não

    Grave um vídeo tocando Dançar Na Chuva e mande pra gente!

    00:00 / 00:00
    outros vídeos desta música
    repetirqualidadeautomática
    Outro vídeos desta música
      00:00 / 00:00
      automática
      OK