Cifra Club

Mil Cairão

Fernandinho

Tab de baixo: Principal
exibições 15.321
Tom: E

Intro: G#m B Eb

(Intro)

G|--------------------------------------------||
D|--------------------------------------------||
A|-----------------6-6-6-6-6-6-6-6------------||4X__.
E|-4-4-4-4-7-7-7-7----------------------------||

Riff 1

G|-----------------------------------------||
D|------4-6-6-6-6-4-----------------6------||
A|--------------7-7-7-7-7-7-7-6-7----------||
E|--4-7------------------------------------||

Riff 2

G|-----------------------------------------||
D|------4-6-6-6-6-4------------------------||
A|------------------777-6-444-7------------||
E|--4-7------------------------------------||

Riff 3

o O O o o... Uhhnnnnn
		G|-13h15-13------------------------------------------||
		D|----------16—14--11h13-11-14-13-11-----------------||
		A|---------------------------------------------------||
		E|---------------------------------------------------||
Riff 4
G|--15-15----------------------------------||
D|-------16-16--11-11-13-13--9-9-11-11-----||
A|-------------------------------------9-9-||
E|-----------------------------------------||
Colaboração e revisão:
  • Felipe Casali
  • whalefy Santos
  • Aldinhozinho

0 comentários

    mostrar mais comentários

    Conseguiu tocar?

    7tocaram0ainda não

    Grave um vídeo tocando Mil Cairão e mande pra gente!

    00:00 / 00:00
    outros vídeos desta música
    repetirqualidadeautomática
    Outro vídeos desta música
      00:00 / 00:00
      automática
      OK