Enviar cifraEntrar

Seu Sangue

Fernandinho

Tab de baixo: Principal
exibições 84.776
(intro)

G |---------------------------------
D |---------------------------------
A |---------------------------------
E |-2-2--2-2--2-2--2-2--2-2---------

(pode variar com o acorde e ir para a oitava respectiva do F#)
G |------------------------------------------
D |----------------------4-4--4-4--4-4-------
A |------------------------------------------
E |-2-2----2-2-----2-2-----------------------

(riff 1)
A           E
Seu sangue,  Sua cruz
F#m           D
Me levam de volta pra Deus
A          E
Sua morte,   Sua vida
F#m          D
As trevas,  ele já venceu

E          D             E            D
Seu amor me conquistou, Sou eterno devedor

G              D
O véu se rasgou
                       F#m
Sua luz em mim brilhou
                   D                   Bm   E
Sua glória me cobriu Mais que vencedor eu sou
                   Bm  E
Mais que vencedor eu sou

(refrão - notas agudas menos o D)

A                          E
Sei que na sala do trono está
               F#m
Eu quero ir pra lá
            D
Pelo novo e vivo caminho

(na parte em que fica apenas a bateria, no segundo coro tem a o solinho que o baixo faz junto com a guitarra)
(4 cordas)
G |---9--------------------------------
D |-----7-----9-6-7-6-------7-6--------
A |-------9-7---------9-7-9------------
E |------------------------------------

(5 Cordas)
G |-------------------------------
D |-------------------------------
A |---7---------------------------
E |-----5------7-4-5-4-------5-4--
B |-------7--5---------7-5-7------

(repete intro 4x) F#m

(na quarta vez acompanha de novo, oitavando o que a guitarra faz)

Aqui você pode repetir a nota LA G |--7 ou então faze-la grave na E |--5
Eu particularmente prefiro dar o gravo pra dar um peso no fim! Fica a critério

G |---9----------------------
D |-----7-9-----7------------
A |---------7-9--------------
E |----------------5---------
  • 1
  • 2
  • 3
  • 4
  • 5
  • 6
  • 7
  • 8
  • 9
  • 10
  • 11
  • 12
    Colaboração e revisão:
    • Demmetrius

    0 comentários

      mostrar mais comentários

      Conseguiu tocar?

      12tocaram0ainda não

      Grave um vídeo tocando Seu Sangue e mande pra gente!

      00:00 / 00:00
      outros vídeos desta música
      repetirqualidadeautomática
      • automática
      Outro vídeos desta música
        00:00 / 00:00
        automática
        • automática
        fecharplay/pause subir/descer velocidade
        fechar
        OK
        Feedback