Cifra Club

Tudo o Que Eu Quero

Fernandinho

Cifra: Principal
exibições 312.386
Tom: D
  G7+
Tudo que eu quero é ser santo
 Bm         G7+
Santo Como Tu
 Bm                       G7+
Tudo que eu quero é ser livre
 Bm              G7M
Livre pra Te servir
   Em                                        A
De todas as coisas que eu quero e que eu preciso
                     Bm7
Eu quero estar no centro da tua vontade
   Em                                        A
De todas as coisas que eu quero e que eu preciso
                    G               A   ( G A )
Eu quero estar no centro da tua vontade
 Bm7                   D                    A
Aquele que começou a boa obra em minha vida
 Bm7                   D                   A
Não terminou... Não terminou... Não terminou

    (primeira viradinha do baixo após o Bm)
G|-------------------------------------------------|
D|----16(17)---------------------------------------|
A|14---------17------------------------------------|
E|---------------17-0------------------------------|


(após a escala cromática - o baixo)

G|-------------------------------------------------|
D|-------------------------------------------------|
A|2/---------17------------------------------------|
E|--------------5/---------17----------------------|


( Bm7 D E G ) (2x)

 Bm7                   D                   A
Aquele que começou a boa obra em minha vida
 Bm7                   D                  A
Não terminou... Não terminou... Não terminou

0 comentários

    mostrar mais comentários

    Conseguiu tocar?

    27tocaram0ainda não

    Grave um vídeo tocando Tudo o Que Eu Quero e mande pra gente!

    00:00 / 00:00
    outros vídeos desta música
    repetirqualidadeautomática
    Outro vídeos desta música
      00:00 / 00:00
      automática
      OK