Cifra Club

Ainda Existem Cowboys

Fernando e Sorocaba

Cifra: Principal (violão e guitarra)
tom: F# (forma dos acordes no tom de E) Capotraste na 2ª casa
[Intro]

    Bm        D         E
E|---------------------------------------------------|
B|-----------------3---------5-----------------------|
G|------4--------2---------4-------------------------|
D|----4--------0---------2---------------------------|
A|--2------------------------------------------------|
E|---------------------------------------------------|

( Bm  D  E  G )
( Bm  D  E  G )

E|----------------------------------------------------|
B|----------------------------------------------------|
G|--4-4-4-4-2-----2-----------------------------------|
D|------------4-2---2h4p2p0--4-4-4-4-2-------2--------|
A|-------------------------------------5-4h5---4h5-2--|
E|----------------------------------------------------|

Bm      G   D
Quem falou
                    A              Bm    G
Que morreu o jeito simples do interior
D
 Se enganou

Bm                       G
Há mais de uma semana, preso na cidade
   D                     A
Entendo e não critico essa modernidade
  Bm              G                      D
Mas é no meio do mato que eu encontro a paz
               A
Minha maior riqueza, o dinheiro não traz
Em                 G
  Noite de lua cheia
                   D
O calor de uma fogueira
                        A
E o beijo quente da minha pequena
      G
E no final de semana
F#
  É no rodeio que vai me encontrar

        G
É isso mesmo
      A           Bm
Sou bruto e sertanejo
     D         G
Eu vivo desse jeito
      A         F#
E só pra te lembrar

G      A         Bm     D 
 Ainda existem cowboys

E|---------------------|
B|---------------------|
G|--7---7-7-x-x-7---7--|
D|--7h9-9-9-x-x-7h9-9--|
A|---------------------|
E|---------------------|

E|--------------------------|
B|--9-------9---------------|
G|--9b11r9--9b11r9p7-7------|
D|--------------------------|
A|--------------------------|
E|--------------------------|

E          G     Bm     D 
 Ainda existem cowboys

E|---------------------|
B|---------------------|
G|--7---7-7-x-x-7---7--|
D|--7h9-9-9-x-x-7h9-9--|
A|---------------------|
E|---------------------|

E|--------------------------|
B|--9-------9---------------|
G|--9b11r9--9b11r9p7-7------|
D|--------------------------|
A|--------------------------|
E|--------------------------|

E          G     Bm     D  E
 Ainda existem cowboys

[Solo] Bm  D  E  G 
       Bm  D  E  G

E|----------------------------------------------------|
B|----------------------------------------------------|
G|--4-4-4-4-2-----2-----------------------------------|
D|------------4-2---2h4p2p0--4-4-4-4-2-------2--------|
A|-------------------------------------5-4h5---4h5-2--|
E|----------------------------------------------------|

Bm      G   D
Quem falou
                    A              Bm    G
Que morreu o jeito simples do interior
D
 Se enganou

Bm                       G
Há mais de uma semana, preso na cidade
   D                     A
Entendo e não critico essa modernidade
  Bm              G                      D
Mas é no meio do mato que eu encontro a paz
               A
Minha maior riqueza, o dinheiro não traz
Em                 G
  Noite de lua cheia
                   D
O calor de uma fogueira
                        A
E o beijo quente da minha pequena
      G
E no final de semana
F#
  É no rodeio que vai me encontrar

        G
É isso mesmo
      A           Bm
Sou bruto e sertanejo
     D         G
Eu vivo desse jeito
      A         F#
E só pra te lembrar

G      A        
 Ainda existem cowboys

(Enquanto o Sorocaba rima a guitarra improvisa do seguinte jeito)

E|--------------------------|
B|--------------------------|
G|--7---7-7-x-x-7---7-------|
D|--7h9-9-9-x-x-7h9-9-------|
A|--------------------------|
E|--------------------------|

E|--------------------------|
B|--9-------9---------------|
G|--9b11r9--9b11r9p7-7------|
D|--------------------------|
A|--------------------------|
E|--------------------------|

E|--------------------------|
B|--------------------------|
G|--7---7-7-x-x-7---7-------|
D|--7h9-9-9-x-x-7h9-9-------|
A|--------------------------|
E|--------------------------|

E|--------------------------|
B|--9-----------------------|
G|--9b11r9------------------|
D|--------------------------|
A|--------------------------|
E|--------------------------|

E|--------------------------|
B|--------------------------|
G|--7---7-7-x-x-7---7-------|
D|--7h9-9-9-x-x-7h9-9-------|
A|--------------------------|
E|--------------------------|

E|--------------------------|
B|--9-------9---------------|
G|--9b11r9--9b11r9p7-7------|
D|--------------------------|
A|--------------------------|
E|--------------------------|

E|--------------------------|
B|--------------------------|
G|--7---7-7-x-x-7---7-------|
D|--7h9-9-9-x-x-7h9-9-------|
A|--------------------------|
E|--------------------------|

E|--------------------------|
B|--9-------9---------------|
G|--9b11r9--9b11r9p7-7------|
D|--------------------------|
A|--------------------------|
E|--------------------------|

Bm                  D
É isso mesmo, o sistema é diferente
E                        G
Se você curte, pega a estrada e vem com a gente
Bm                  D
Cê me desculpa, mas eu não te devo nada
         E                      G
Se meu jeito não te agrada, pó vazar na braquiária
Bm            D
Vem, vai, que hoje o pau tora
E                G
Se bobear, eu já vou passando a espora
Bm               D
É pescaria, churrasco, cerveja
         E                        G          F#
Mulher gosta de cowboy, ela não gosta de abelha
        G
É isso mesmo
      A           Bm
Sou bruto e sertanejo
     D         G
Eu vivo desse jeito
      A         F#
E só pra te lembrar

G      A         Bm     D 
 Ainda existem cowboys

E|---------------------|
B|---------------------|
G|--7---7-7-x-x-7---7--|
D|--7h9-9-9-x-x-7h9-9--|
A|---------------------|
E|---------------------|

E|--------------------------|
B|--9-------9---------------|
G|--9b11r9--9b11r9p7-7------|
D|--------------------------|
A|--------------------------|
E|--------------------------|

E          G     Bm     D 
 Ainda existem cowboys

E|---------------------|
B|---------------------|
G|--7---7-7-x-x-7---7--|
D|--7h9-9-9-x-x-7h9-9--|
A|---------------------|
E|---------------------|

E|--------------------------|
B|--9-------9---------------|
G|--9b11r9--9b11r9p7-7------|
D|--------------------------|
A|--------------------------|
E|--------------------------|

E          G     Bm     D  E
 Ainda existem cowboys

Solo 2x: Bm  D  E  G 

E|----------------------------------------------------|
B|----------------------------------------------------|
G|--4-4-4-4-2-----2-----------------------------------|
D|------------4-2---2h4p2p0--4-4-4-4-2-------2--------|
A|-------------------------------------5-4h5---4h5-2--|
E|----------------------------------------------------|
00:00 / 00:00
Outros vídeos desta música
Repetir
Outros vídeos desta música
Composição de Bruno Henrrique / Caco Nogueira / Lucas Santos / Ray Ferrari / Sorocaba
Colaboração e revisão:
  • Marquinhos Sene
  • Bruno Fornaciari
  • Wallace Menon
10.069 exibições
    • ½ Tom
    • A
    • Bb
    • B
    • C
    • Db
    • D
    • Eb
    • E
    • F
    • F#
    • G
    • Ab
  • Adicionar à lista

    0 comentários

    Ver todos os comentários

    Conseguiu tocar?

    2 Tocaram 1 Ainda não

    Grave um vídeo tocando Ainda Existem Cowboys e nos envie!

    Entre para oCifra Club PRO

    Tenha acesso a benefícios exclusivos no App e no Site

    • Chega de anúncios

    • Prioridade de compra em lançamentos

    • Mais recursos no app do Afinador

    • Atendimento Prioritário

    • Descontos nos produtos Cifra Club

    • Ajude a produzir mais conteúdo

    00:00 / 00:00

    Cifra Club Pro

    Aproveite o Cifra Club com benefícios exclusivos e sem anúncios
    Cifra Club Pro
    Aproveite o Cifra Club com benefícios exclusivos e sem anúncios
    OK