Cifra Club

Aprenda

Até o Final

Fernando e Sorocaba

Cifra: Versão 6 (violão e guitarra)
tom: D
(Versão 2011 - Ao Vivo)

E|------------------------------------------------------------/10--9-------------------------|
B|----------------------------------------3//10---7-10-7-------------10----------------------|
G|-----7--6--7//11-----7---6---4----7--6-----------------7-4------------9-7-6-------7--6--7--|
D|----7---6--7//11----7---6---4-----7--6--------------------------------------7----7---6--7--|
A|--5-----4--5//9----5---4---2------5--4------------------------------------------5----4--5--|
E|-------------------------------------------------------------------------------------------|

(Percussão)

Intro: D  Bm  G  A

Riff 1:
E|--5/7-5-2---------------------|
B|--5/7-5-2--5/7-5--------------|
G|-----------4/6-4--2-----------|  
D|-----------------------2h4p2--|
A|--------------------2h4-------|
E|------------------------------|

E|--5-0-----------------------5-0-----------------------5-0------------|
B|------3-2-3-5-3-----------------3-2-3-5-3-----------------3-2-3-5-3--|
G|-------------------2h4h2---------------------2h4h2-------------------|
D|----------------2h4-----------------------2h4------------------------|
A|---------------------------------------------------------------------|
E|---------------------------------------------------------------------|

E|-------5-----------------------------------|
B|---5h7---7-3h5-3--2-2h3h2-0----------------|
G|----------------------------2-2h4h2--------|
D|------------------------------------4-2-0--|
A|-------------------------------------------|
E|-------------------------------------------|

D
No começo eu tentava te fazer me amar,
   Bm7
Mas agora estamos juntos e posso confessar
      G                       D/F#
Eu não gosto de cinema, eu não sei cozinhar
     E7                                  A7
Nunca fui tão cavalheiro, eu jurei nunca casar  (Riff 1)
 D
A carta que mandei não fui eu que escrevi
    Bm7
E o poema que te recitei num livro eu li
        G                   D/F#
Não sou bom de futebol e por você já chorei
   E7                              A7
Mas é de verdade estou te amando e me apaixonei
E|-----------------------|
B|--3-2-0----------------|
G|--------2--------------|
D|----------5-4-2--------|
A|--------------------5--| (cai no D)
E|-----------------------|

Refrão:
 D                         G
O doce do seu beijo enfeitiçou meu coração
Bm                     A
Vivo noite e dia numa nuvem de paixão,
D                        G
Nunca vou te fazer sofrer
                 Bm                       A          D    G
Não quero seu mal, vem meu anjo sigo com você até o final,
        Bm  A  A4  A
Até o final.

   D
Eu já chorei sozinho quando a gente brigou
     Bm
E confesso sou ciumento e sempre escondo minha dor
    G                     D/F#
As datas importantes vivo sempre a esquecer
      E7                       A7
Machuquei muitas mulheres procurando você
E|-----------------------|
B|--3-2-0----------------|
G|--------2--------------|
D|----------5-4-2--------|
A|--------------------5--| (cai no D)
E|-----------------------|

D                         G
O doce do seu beijo enfeitiçou meu coração
Bm                     A
Vivo noite e dia numa nuvem de paixão,
D                        G
Nunca vou te fazer sofrer
                 Bm                          A          D    G
Não quero seu mal, vem meu anjo sigo com você até o final,
        Bm    A A4 A
Até o final.

Solo: E  C#m  A  B
E|-------------------------------------------------7/9-9\7--|
B|-7/9-7-7-5-5-4-2-0-0h2-2-4-0--7/9-7-7-5-5-4-2-0-----------|
G|----------------------------------------------------------|
D|----------------------------------------------------------|
A|----------------------------------------------------------|
E|----------------------------------------------------------|

E|----------------------------------------------------------|
B|-7/9-7-7-5-5-4-2-0-0h2-2-0-0h2---2-4-5-4-4-4-2-2-2-0------|
G|-----------------------------------------------------1-2--|
D|----------------------------------------------------------|
A|----------------------------------------------------------|
E|----------------------------------------------------------|

E                         C#m
O doce do seu beijo enfeitiçou meu coração
A                     B
Vivo noite e dia numa nuvem de paixão,
E                        C#m
Nunca vou te fazer sofrer
                 A                          B          E    C#m
Não quero seu mal, vem meu anjo sigo com você até o final,
        A    B
Até o final.
E|--5/7-5-2----------------------5--|
B|--5/75--2--5/7-5-----------3---3--|
G|-----------4/6-4--2------2-----2--|
D|---------------------2h4-------0--|
A|----------------------------------|
E|----------------------------------|
Composição de Sorocaba
Colaboração e revisão:
  • Lucas Guimaru00e3es
584 exibições
  • Simplificar cifra
    • ½ Tom
    • A
    • Bb
    • B
    • C
    • Db
    • D
    • Eb
    • E
    • F
    • F#
    • G
    • Ab
  • Adicionar à lista

    0 comentários

    Ver todos os comentários
    00:00 / 00:00
    Outros vídeos desta música
    Repetir Qualidade Automático
    Outros vídeos desta música
    00:00 / 00:00
    Automático

    Cifra Club Pro

    Aproveite o Cifra Club com benefícios exclusivos e sem anúncios
    Cifra Club Pro
    Aproveite o Cifra Club com benefícios exclusivos e sem anúncios
    OK