Cifra Club

Cada Um Na Sua

Fernando e Sorocaba

Cifra: Principal (violão e guitarra)
Tom: C
Afinação: Db Ab Db Gb Bb Eb

[Intro] G9  D  A  Bm7
        G9  D  A

Parte 1 de 4
                G9    D
E|------------------x-----------------------|
B|------------------x-----------------------|
G|----------------2-x-----------------------|
D|----------------0-x---2h4-2-0h2-0h2-------|
A|-0h4/5\4p2p0------x---0-------------------|
E|--------------5---x-0---------------------|

Parte 2 de 4
   A        Bm7
E|-----x-x----------------------------------|
B|-2-2-x-x--3-3-3---------------------------|
G|-2-2-x-x--2-2-2---------------------------|
D|-2-2-x-x--0-0-0---------------------------|
A|-0-0-x-x--2-2-2---------------------------|
E|-----x-x----------------------------------|
   ↓ ↑ ↓ ↑  ↓ ↑ ↓

Parte 3 de 4
                G9    D
E|------------------x-----------------------|
B|------------------x-----------------------|
G|----------------2-x-----------------------|
D|----------------0-x---2h4-2-0h2-0h2-------|
A|-2h4/5\4p2p0------x---0-------------------|
E|--------------5---x-0---------------------|

Parte 4 de 4
   A
E|------------------------------------------|
B|-2-2-2h3-2h3p2----------------------------|
G|-2-2-2---2--------------------------------|
D|-2-2-2h4-2h4p2----------------------------|
A|-0-0-0---0--------------------------------|
E|------------------------------------------|
   ↓ ↑ ↓   ↓ 


[Primeira Parte]

 G5   D5         A
Já parou pra pensar
               Bm7
No que te faz pensar em mim
G9    D        A
Eu parei e pensei assim

       G5       D5
O cientista viaja na sua pesquisa
         A          Bm7
O professor, enquanto ensina
       G5       D5
O motorista viaja pelas rodovias
  A            Bm7
E eu viajo em você
            G9   D        A  Bm7
Cada um na sua e eu em você
            G9   D        A
Cada um na sua e eu em você


Parte 1
   G5       D5   A        Bm7
E|-----x-x-----------x-x--------------------|
B|-3-3-x-x--3----2-2-x-x--3-----------------|
G|-0-0-x-x--0h2--2-2-x-x--2-----------------|
D|-0-0-x-x--0----2-2-x-x--0-----------------|
A|-----x-x--0----0-0-x-x--2--4/5\4p2p0------|
E|-5---x-x--0--------x-x--------------------|
   ↓ ↑ ↓ ↑  ↓    ↓ ↑ ↓ ↑  ↓

Parte 2
   G9       D           A
E|-----x-x------------------x-x-------------|
B|-----x-x--------------2-2-x-x-------------|
G|-2-2-x-x--------------2-2-x-x-------------|
D|-0-0-x-x--2h4--4-4-4--2-2-x-x-------------|
A|-----x-x--0----0-0-0--0---x-x-------------|
E|-5-5-x-x--0----0-0-0------x-x-------------|
   ↓ ↑ ↓ ↑  ↓    ↓ ↓ ↑  ↓ ↑ ↓ ↑

Parte 3
E|------------------------------------------|
B|------------------------------------------|
G|-2h4p2p0----------------------------------|
D|---------4/5\4p2p0-----0------------------|
A|-------------------0h2--------------------|
E|------------------------------------------|

Parte 4
   G5       D5
E|-----x-x----------------------------------|
B|-3-3-x-x--3----3-3---3-3-3-3--------------|
G|-0-0-x-x--0h2--2-2---2-2-2-2--------------|
D|-0-0-x-x--0----0-0---0-0-0-0--------------|
A|-----x-x--0----0-0---0-0-0-0--------------|
E|-5---x-x--0----0-0---0-0-0-0--------------|
   ↓ ↑ ↓ ↑  ↓    ↑ ↓   ↓ ↑ ↓ ↑

Parte 5
   A        Bm7
E|-----x-x----------------------------------|
B|-2-2-x-x--3-3-----------------------------|
G|-2-2-x-x--2-2-----------------------------|
D|-2-2-x-x--0-0-----------------------------|
A|-0-0-x-x--2-2--2-4-5----------------------|
E|-----x-x----------------------------------|
   ↓ ↑ ↓ ↑  ↓ ↑

Repete Parte 4
   G5       D5  
E|-----x-x----------------------------------|
B|-3-3-x-x--3----3-3---3-3-3-3--------------|
G|-0-0-x-x--0h2--2-2---2-2-2-2--------------|
D|-0-0-x-x--0----0-0---0-0-0-0--------------|
A|-----x-x--0----0-0---0-0-0-0--------------|
E|-5---x-x--0----0-0---0-0-0-0--------------|
   ↓ ↑ ↓ ↑  ↓    ↑ ↓   ↓ ↑ ↓ ↑

Parte 6
   A        Bm7
E|-----x-x----------------------------------|
B|-2-2-x-x--3-3-3---------------------------|
G|-2-2-x-x--2-2-2---------------------------|
D|-2-2-x-x--0-0-0---------------------------|
A|-0-0-x-x--2-2-2--2h4-5\4p2p0--------------|
E|-----x-x----------------------------------|
   ↓ ↑ ↓ ↑  ↓ ↑ ↓

Parte 7
   G9       D
E|-----x-x----------------------------------|
B|-----x-x----------------------------------|
G|-2-2-x-x----------------------------------|
D|-0-0-x-x--2h4--4-4-4----------------------|
A|-----x-x--0----0-0-0----------------------|
E|-5-5-x-x--0----0-0-0----------------------|
   ↓ ↑ ↓ ↑  ↓    ↓ ↓ ↑               

Parte 8
   A        Bm7
E|-----x-x----------------------------------|
B|-2-2-x-x--3-3-3---------------------------|
G|-2-2-x-x--2-2-2---------------------------|
D|-2-2-x-x--0-0-0---------------------------|
A|-0-0-x-x--2-2-2--2h4-5\4p2p0--------------|
E|-----x-x----------------------------------|
   ↓ ↑ ↓ ↑  ↓ ↑ ↓

Parte 9
  G9        D           A
E|-----x-x----------------------------------|
B|-----x-x--------------2-2-2-2-2-----------|
G|-2-2-x-x--------------2-2-2-2-2-----------|
D|-0-0-x-x--2h4--4-4-4--2-2-2-2-2-----------|
A|-----x-x--0----0-0-0--0-0-0-0-0-----------|
E|-5-5-x-x--0----0-0-0----------------------|
   ↓ ↑ ↓ ↑  ↓    ↓ ↓ ↑  ↓ ↓ ↓ ↓ ↓    


[Refrão]

         G5        D
Já imaginou que absurdo
        Bm7               A
Você viver sem o que mais ama no mundo
         F#m
Tirar a farda do soldado

A lei do advogado
G5
Acho que você já entendeu

O que eu queria dizer
            G9   D        A  Bm7
Cada um na sua e eu em você
            G9   D        A
Cada um na sua e eu em você

Parte 1
                G9      D
E|------------------x-x---------------------|
B|------------------x-x---------------------|
G|----------------2-x-x---------------------|
D|----------------0-x-x-2h4-2-2-2-2-2-------|
A|-0h4/5\4p2p0------x-x-0---0-0-0-0-0-------|
E|--------------5---x-x-0---0-0-0-0-0-------|
                ↓ ↑ ↓ ↑ ↓   ↓ ↓ ↑ ↓ ↑

Parte 2
   A        Bm7
E|-----x-x----------------------------------|
B|-2-2-x-x--3-3-3---------------------------|
G|-2-2-x-x--2-2-2---------------------------|
D|-2-2-x-x--0-0-0---------------------------|
A|-0-0-x-x--2-2-2---------------------------|
E|-----x-x----------------------------------|
   ↓ ↑ ↓ ↑  ↓ ↑ ↓

Parte 3
              G9      D              A
E|----------------x-x-----------------------|
B|----------------x-x----------------2------|
G|--------------2-x-x----------------2------|
D|--------------0-x-x-2h4-2-2-2-2-2--2------|
A|-4/5\4p2p0------x-x-0---0-0-0-0-0--0------|
E|------------5---x-x-0---0-0-0-0-0---------|
              ↓ ↑ ↓ ↑ ↓   ↓ ↓ ↑ ↓ ↑  ↓


[Segunda Parte]

 G5   D5         A
Já parou pra pensar
               Bm7
No que te faz pensar em mim
G     D5       A
Eu parei e pensei assim

       G5       D5
O cientista viaja na sua pesquisa
         A          Bm7
O professor, enquanto ensina
       G5       D5
O motorista viaja pelas rodovias
  A            Bm7
E eu viajo em você
            G9   D        A  Bm7
Cada um na sua e eu em você
            G9   D        A
Cada um na sua e eu em você


[Refrão]

         G5        D5
Já imaginou que absurdo
        Bm7               A
Você viver sem o que mais ama no mundo
         F#m
Tirar a farda do soldado

A lei do advogado
G5
Acho que você já entendeu

                   D5
Já imaginou que absurdo
        Bm7               A
Você viver sem o que mais ama no mundo
         F#m
Tirar a farda do soldado

A lei do advogado
G5
Acho que você já entendeu

O que eu queria dizer
            G9   D        A  Bm7
Cada um na sua e eu em você

         G5        D5
Já imaginou que absurdo
        Bm7               A
Você viver sem o que mais ama no mundo
         F#m
Tirar a farda do soldado

A lei do advogado
G5
Acho que você já entendeu

         G5        D5
Já imaginou que absurdo
        Bm7               A
Você viver sem o que mais ama no mundo
         F#m
Tirar a farda do soldado

A lei do advogado
G5
Acho que você já entendeu

O que eu queria dizer

            G9   D5       A  Bm7
Cada um na sua e eu em você
            G9   D5       A  D5
Cada um na sua e eu em você
exibições 25.080
Acordes para:

    0 comentários

    mostrar mais comentários

    Conseguiu tocar?

    8 tocaram 2 ainda não

    Grave um vídeo tocando Cada Um Na Sua e mande pra gente!

    00:00 / 00:00
    outros vídeos desta música
    repetir qualidade Automático
    Outros vídeos desta música
    00:00 / 00:00
    Automático
    Capítulos
    • Apresentação Fernando e Sorocaba
    • Tocando a música
    • Dicas da música
    • Afinação da música
    • Acordes da música
    • Dedilhado da introdução
    • Tabs da primeira parte música
    • Ritmo refrão (Principal)
    • Dedilhado refrão
    • Encerramento
    OK