Cifra Club

Aprenda

Conselho de Pai

Fernando e Sorocaba

Cifra: Principal (violão e guitarra)
Tom: C
[Intro] F  G  Am7 
        F  G  Am7

   F          G          Am7
E|-----3-1-0------3-1-0------0---0----------|
B|-1----------3----------1-----3---0-1------|
G|---2----------0----------0----------------|
D|------------------------------------------|
A|-----------------------0------------------|
E|-1----------3-----------------------------|

   F          G          Am7
E|-----3-1-0------3-1-0---------------------|
B|-1----------3----------1---1-0-1----------|
G|---2----------0----------0----------------|
D|------------------------------------------|
A|-----------------------0------------------|
E|-1----------3-----------------------------|

[Primeira Parte]

C         
  Oh, meu menino  
     F                       G                 C
Não pede pra eu voltar, que fica mais difícil ainda 
         
Oh, meu menino 
   F                                G   Am7
Errei com sua mãe,eu juro, ela não merecia 
G                C      
  Foi burrice a minha 

[Pré-Refrão]

F                                             G6
E quando você também tiver com seus cabelos brancos 
                                     Am7
E encontrar uma mulher pra dizer: te amo 
                          
Cuida dela, não machuca ela

[Riff]

E|------------------------------------------|
B|-----8--6--5--1---------------------------|
G|------------------------------------------|
D|-/9--9--7--5--2---------------------------|
A|------------------------------------------|
E|------------------------------------------|

F                                       G6
E se um dia outra pessoa te oferecer o mundo 
                                     Am7
Não troque sua família por alguns minutos 
                       
De prazer, aí cê vai sofrer 

[Refrão]

           C      
Olha eu aqui 
                                             
Te vendo crescendo de longe 
           F
Olha eu aqui 
                            
Falando eu te amo pelo telefone 
            Am
O mundo dá voltas 
                                   G
Mas tem coisas nessa vida que não voltam 

                    F
Aprenda com os meus erros 
         G               Am7
Que até hoje eu sofro demais 
                    F
Aprenda com os meus erros 
     G                C        
Isso é só um conselho   de pai

[Solo] F  G  Am7

   F          G          Am7
E|-----3-1-0------3-1-0---------------------|
B|-1----------3----------1---1-0-1----------|
G|---2----------0----------0----------------|
D|------------------------------------------|
A|-----------------------0------------------|
E|-1----------3-----------------------------|

[Primeira Parte]

C         
  Oh, meu menino  
     F                       G                 C
Não pede pra eu voltar, que fica mais difícil ainda 
         
Oh, meu menino 
   F                                G   Am7
Errei com sua mãe,eu juro, ela não merecia 
G                C      
  Foi burrice a minha 

[Pré-Refrão]

F                                             G6
E quando você também tiver com seus cabelos brancos 
                                     Am7
E encontrar uma mulher pra dizer: te amo 
                          C  F  C    
Cuida dela, não machuca ela

[Riff]

E|------------------------------------------|
B|-----8--6--5--1---------------------------|
G|------------------------------------------|
D|-/9--9--7--5--2---------------------------|
A|------------------------------------------|
E|------------------------------------------|

F                                       G6
E se um dia outra pessoa te oferecer o mundo 
                                     Am7
Não troque sua família por alguns minutos 
                       
De prazer, aí cê vai sofrer 

[Refrão]

           C      
Olha eu aqui 
                                              
Te vendo crescendo de longe 
           F
Olha eu aqui 
                            
Falando eu te amo pelo telefone 
            Am
O mundo dá voltas 
                                   G
Mas tem coisas nessa vida que não voltam 

           C      
Olha eu aqui 
                                              
Te vendo crescendo de longe 
           F
Olha eu aqui 
                            
Falando eu te amo pelo telefone 
            Am
O mundo dá voltas 
                                   G
Mas tem coisas nessa vida que não voltam 

                    F
Aprenda com os meus erros 
         G               Am7
Que até hoje eu sofro demais 
                    F
Aprenda com os meus erros 
     G                C        
Isso é só um conselho   de pai
Composição de Cesar Zocante / Felipe KeF / João Pedroni / Kaique Kef / Rodrigo Marco / Sorocaba
Colaboração e revisão:
  • Thiago Almeida
  • Alifer Sanchez
2.265 exibições
    • ½ Tom
    • A
    • Bb
    • B
    • C
    • Db
    • D
    • Eb
    • E
    • F
    • F#
    • G
    • Ab
  • Adicionar à lista

    0 comentários

    Mostrar mais comentários

    Conseguiu tocar?

    0 Tocaram 0 Ainda não

    Grave um vídeo tocando Conselho de Pai e mande pra gente!

    00:00 / 00:00
    outros vídeos desta música
    repetir qualidade Automático
    Outros vídeos desta música
    00:00 / 00:00
    Automático

    Cifra Club Pro

    Aproveite o Cifra Club com benefícios exclusivos e sem anúncios
    7 dias grátis
    Cifra Club Pro
    Aproveite o Cifra Club com benefícios exclusivos e sem anúncios
    7 dias grátis
    OK