Cifra Club

Delegada

Fernando e Sorocaba

Cifra: Versão 2 (violão e guitarra)
tom: D
(intro) E C#m

    A                                                       E  C#m
E|------------------------------------------------------------
B|--5-------------5-------------5-------------5---------------
G|------4-------------4-------------4-------------4-----------
D|----7---7-4-7-4---7---7-4-7-4---7---7-4-7-4---7---7-4-7-4---
A|----------------------------------------------------------7-
E|------------------------------------------------------------

    A
E|----------------------------------------------------------
B|--5-------------5-------------5-------------5-------------
G|------4-------------4-------------4-------------4---------
D|----7---7-4-7-4---7---7-4-7-4---7---7-4-7-4---7---7-4-7-4-
A|----------------------------------------------------------
E|----------------------------------------------------------

   E
E|-------------------
B|---------------4-5-
G|-----------4-5-----
D|-----4-6-7---------
A|-6-7---------------
E|-------------------

     E                                    B7
Delegada será que eu sou motivo de investigação
                             A
Segue pelas ruas vive de marcação
           E        B7
Assim não dá..a..a..a
     E                                      B7
Delegada quem procura acha, saia já do meu pé
                                A
Juro que tentei te fazer minha mulher
           E        B7 A
Assim não dá..a..a..a

                            E
Me persegue quando vou sair
                      A
Será que ela é do FBI
                             B7
Na internet ela vive a fuçar
                               A
Desse jeito não dá pra agüentar

(refrão)
       E
Eu me rendo
         C#m
Me entreguei
    A                                  B7
Mas para de ficar investigando a minha vida
     E
Meu bem
       C#m
Brinca não
  A                                  B7        E
Chega dessa história de bancar a delegada da paixão

(intro)
(repete tudo)
(refrão 3x)

(base solo final) E C#m

    A                           B7                    A E A E A E
E|----------------------------------------------------
B|--5-------------5-------------7-------------7-7-7-5-
G|------4-------------4-----------4-6-4---4-----------
D|----7---7-4-7-4---7---7-4-7-4---------6---6---------
A|----------------------------------------------------
E|----------------------------------------------------
00:00 / 00:00
Outros vídeos desta música
Repetir
Outros vídeos desta música
Composição de Sorocaba
Colaboração e revisão:
  • Edson Lins
16.977 exibições
    • ½ Tom
    • A
    • Bb
    • B
    • C
    • Db
    • D
    • Eb
    • E
    • F
    • F#
    • G
    • Ab
  • Adicionar à lista

    0 comentários

    Ver todos os comentários

    Entre para oCifra Club PRO

    Tenha acesso a benefícios exclusivos no App e no Site

    • Chega de anúncios

    • Prioridade de compra em lançamentos

    • Mais recursos no app do Afinador

    • Atendimento Prioritário

    • Descontos nos produtos Cifra Club

    • Ajude a produzir mais conteúdo

    00:00 / 00:00

    Cifra Club Pro

    Aproveite o Cifra Club com benefícios exclusivos e sem anúncios
    Cifra Club Pro
    Aproveite o Cifra Club com benefícios exclusivos e sem anúncios
    OK