Cifra Club

Desorientado

Fernando e Sorocaba

Cifra: Principal (violão e guitarra)
tom: A
 Intro 2x: A  E  D9
E|---------------------------------------------------|
B|---------------------------------------------------|
G|--6-7-7/9-7---6-7-7/9-9/11-9-7-6-7-6-7-6-7-6-------|
D|---------------------------------------------7-9---|
A|------------7------------------------------------7-|
E|---------------------------------------------------|

E|---------------------------------------------------|
B|---------------------------------------------------|
G|--6-7-7/9-7---6-7-7/9-9/11-9-7-6-7-6-7-9-11-13-14--|
D|---------------------------------------------------|
A|------------7--------------------------------------|
E|---------------------------------------------------|

A                              E                    D9
Não pude perceber quando as flores começaram a murchar
A                               E                   D9
Nem mesmo me toquei quando o inverno invadiu o seu olhar
A                           E                    D9
Porque acreditei que o até logo nunca iria ser adeus
A                        E                     D9
Porque imaginei que o paraíso era eternamente meu

Bm                  F#m                         D9                    E
Ingenuidade minha acreditar que a chama desse amor eterno nunca iria se apagar
Bm                     F#m                     D9                    E
Tão desatento eu não percebi você tentava me falar O que eu não podia ouvir

Refrão 2x:
A              E                 D9
Sozinho eu fiquei, sem rumo eu chorei, completamente desorientado
A                      E        D9
Assumo eu errei ta na cara. O Nosso amor gritava por socorro e eu não escutava
00:00 / 00:00
Outros vídeos desta música
Repetir
Outros vídeos desta música
Composição de Sorocaba
31.946 exibições
    • ½ Tom
    • A
    • Bb
    • B
    • C
    • Db
    • D
    • Eb
    • E
    • F
    • F#
    • G
    • Ab
  • Adicionar à lista

    0 comentários

    Ver todos os comentários

    Entre para oCifra Club PRO

    Tenha acesso a benefícios exclusivos no App e no Site

    • Chega de anúncios

    • Prioridade de compra em lançamentos

    • Mais recursos no app do Afinador

    • Atendimento Prioritário

    • Descontos nos produtos Cifra Club

    • Ajude a produzir mais conteúdo

    00:00 / 00:00

    Cifra Club Pro

    Aproveite o Cifra Club com benefícios exclusivos e sem anúncios
    Cifra Club Pro
    Aproveite o Cifra Club com benefícios exclusivos e sem anúncios
    OK