Enviar cifraEntrar

Homens e Anjos

Fernando e Sorocaba

Cifra: Principal
exibições 94.057
Tom: D
Capotraste na 5ª casa   

Intro:


      D                     A        Bm              G
E|----22-x---x--------x----------x------22-x---x---------x------------------
B|----33-x-3-x-2---3--x-------2--x------33-x-3-x--2---3--x------2-----------
G|--2----x-2-x-2---2--x--2-------x---------x-4-x--0---0--x--0---2-----------
D|-0-----x---x--------x-----2----x---4-----x---x---------x--0----------0----
A|---------------0-0-----0--0----x-2---------------------x---------0h2------
E|-------------------------------x------------------3-3--x----3-3-----------


      D                     A        Bm              G
E|----22-x---x--------x----------x------22-x---x-------3~-----
B|----33-x-3-x-2---3--x-------2--x------33-x-3-x--3----3~-----
G|--2----x-2-x-2---2--x--2-------x---------x-4-x--0----0~-----
D|-0-----x---x--------x-----2----x---4-----x---x-------0~-----
A|---------------0-0-----0--0----x-2-------------------2~-----
E|-------------------------------x---------------------3~-----


Música:

Pode se repetir todo esse dedilhado, ou pode fazer um ritmo padrão:


E|-----x-------x-------x-------x-------x-------x-------x-------x----
B|---3-x-3---3-x-3---2-x-2---2-x-2---3-x-3---3-x-3---3-x-3---3-x-3--
G|---2-x-2---2-x-2---2-x-2---2-x-2---4-x-4---4-x-4---0-x-0---0-x-0--
D|-0---x-0-----x-------x-------x-------x-------x-------x-------x----
A|-----x-------x---0---x-0-----x---2---x-2-----x-------x-------x----
E|-----x-------x-------x-------x-------x-------x---3---x-3-----x----



   D             A
Eu vivo no chão, ela tem asas
   Bm               G
Sou a escuridão, ela é iluminada
D               A
Ela é tudo, eu sou quase nada
Bm         (G)
------ apenas uma batida para baixo deixando o som fluir
Homens e anjos

 D                 A
Sou tão comum, ela é diferente
Bm                     G
Sou tão ciumento, mas anjos não mentem
D                   A
Morro por ela, ela vive pra gente
Bm          (G)
Homens e anjos

D                     A                      Bm
Um raio e um arcos iris, dividindo o mesmo céu
                 G                           D
Belezas tão diferentes, pintadas num só papel
                   A                      G    G D Em
Vencemos o impossível com a força do coração

                         G
Parece estranho mas nós nos amamos
              D
Homens e anjos


(Repete só a segunda vez que é tocado o dedilhado da intro)


     D              A
Os nossos caminhos se encontraram
Bm                    G
Talvez foi destino, talvez o acaso
   D                 A
O doce o amargo, a pureza e o pecado
Bm          (G)
Homens e anjos

(começa a bater pra cima e pra baixo sem perder o tempo da música) ↓↑↓↑↓↑


D                     A                      Bm
Um raio e um arcos iris, dividindo o mesmo céu
                 G                           D
Belezas tão diferentes, pintadas num só papel
                   A                      G    G D Em
Vencemos o impossível com a força do coração

                         G
Parece estranho mas nós nos amamos

               D   A    G    G
G|-5--5/7-|-7h8p7-7h8p7-7h8p7/10-8-10-8-9-|


Homens e anjos
           D
Homens e anjos
           A     Bm    G
Homens e anjos   ooooooOOO

(enquanto ele canta essa parte acima se toca :)


G|-5--5/7-|-7h8p7-7h8p7-7h8p7-7/10-|


(Inicia outro ritmo : ↓↓↑↑↓↓↑↓↑)


D                     A                      Bm
Um raio e um arcos iris, dividindo o mesmo céu
                 G                           D
Belezas tão diferentes, pintadas num só papel
                   A                      G    G D Em
Vencemos o impossível com a força do coração

                         G
Parece estranho mas nós nos amamos
           D
Homens e anjos


(repete a intro "apenas o D e o A")


   D             A
Eu vivo no chão, ela tem asas
   Bm               G
Sou a escuridão, ela é iluminada
D               A
Ela é tudo, eu sou quase nada
Bm         (G)
Homens e anjos
  • 1
  • 2
  • 3
  • 4
  • 5
  • 6
  • 7
  • 8
  • 9
  • 10
  • 11
  • 12
    Acordes para:

      0 comentários

        mostrar mais comentários

        Conseguiu tocar?

        17tocaram1ainda não

        Grave um vídeo tocando Homens e Anjos e mande pra gente!

        00:00 / 00:00
        outros vídeos desta música
        repetirqualidadeautomática
        • automática
        Outro vídeos desta música
          00:00 / 00:00
          automática
          • automática
          Acordes para:violão e guitarra
          dificuldadeexibiçõescontribuições
          fecharplay/pause subir/descer velocidade
            acordes
            fechar
            OK
            Feedback