Cifra Club

Madri

Fernando e Sorocaba

Cifra: Principal (violão e guitarra)
Tom: Em
[Intro] G5  D4  C9  Em
        G5  D4  C9  Em

Parte 1 de 6              
   G5                   
E|-----x-------x-------------------------------------|
B|---3-x-3-3---x-3-----------------------------------|
G|---0-x-2-2h4-x-2-----------------------------------|
D|-----x-------x-------------------------------------|
A|-----x-------x-------------------------------------|
E|-3---x-3-----x-------------------------------------|

Parte 2 de 6 
   D4
E|-----x-------x-------------------------------------|
B|---3-x-3-3---x-3-----------------------------------|
G|---0-x-2-2h4-x-0-----------------------------------|
D|-0---x-0-----x-------------------------------------|
A|-----x-------x-------------------------------------|
E|-----x-------x-------------------------------------|

Parte 3 de 6
   C9                  
E|-----x-----------x---------------------------------|
B|---3-x---3-------x---------------------------------|
G|---0-x---0-------x-0-------------------------------|
D|-----x-x-----0h2-x---------------------------------|
A|-3---x-----3-----x---------------------------------|
E|-----x-----------x---------------------------------|

Parte 4 de 6
   Em
E|-0-------------------------------------------------|
B|-0-8-7/3---3---------------------------------------|
G|-0-------4-----------------------------------------|
D|-2-------------------------------------------------|
A|-2-------------------------------------------------|
E|-0-------------------------------------------------|

Parte 5 de 6
   G5                   
E|-----x-------x-------------------------------------|
B|---3-x-3-3---x-3-----------------------------------|
G|---0-x-2-2h4-x-2-----------------------------------|
D|-----x-------x-------------------------------------|
A|-----x-------x-------------------------------------|
E|-3---x-3-----x-------------------------------------|

   D4
E|-----x-------x-------------------------------------|
B|---3-x-3-3---x-3-----------------------------------|
G|---0-x-2-2h4-x-0-----------------------------------|
D|-0---x-0-----x-------------------------------------|
A|-----x-------x-------------------------------------|
E|-----x-------x-------------------------------------|

   C9                  
E|-----x-----------x---------------------------------|
B|---3-x---3-------x---------------------------------|
G|---0-x---0-------x-0-------------------------------|
D|-----x-x-----0h2-x---------------------------------|
A|-3---x-----3-----x---------------------------------|
E|-----x-----------x---------------------------------|

Parte 6 de 6
E|-0-------------------------------------------------|
B|-0-3-3/5-3---3---3-0-------------------------------|
G|-0-0-0---2---2h4-2-0-------------------------------|
D|-2---------0-------0-------------------------------|
A|-2-------------------------------------------------|
E|-0-------------------------------------------------|

[Primeira Parte]

   G5              D5
E|-----x-----x---------x-------x---------------------|
B|---3-x-3-3-x-3-----3-x-3-----x---------------------|
G|---0-x-0-0-x-0-----2-x-2-0h2-x-0-------------------|
D|-----x-----x-----0---x-0-----x---x-0---------------|
A|-----x-----x---------x-------x---------------------|
E|-3---x-3---x---------x-------x---------------------|

   Em7             C9 
E|-----x-----x--------x------------------------------|
B|---3-x-3-3-x-3----3-x-3-3-3-------3----------------|
G|---0-x-0-0-x-0----0-x-0-0-0-----0------------------|
D|-----x-----x--------x-2-2-2-0h2--------------------|
A|-----x-----x----3---x-3----------------------------|
E|-0---x-0---x--------x------------------------------|

G5         D5
   Que saudade amor
Em7                            C9
    Estou sabendo que ai na Espanha tudo é lindo
G5             D5
   Você me deixou
Em7                        C9
    E aqui dentro meu coração ficou partido

[Segunda Parte]

   Em7             D/F#
E|-----x-----x---------x-----x-----------------------|
B|---3-x-3-3-x-3-----3-x-3-3-x-3---------------------|
G|---0-x-0-0-x-0-----2-x-2-2-x-2---------------------|
D|-----x-----x---------x-----x-----------------------|
A|-----x-----x---------x-----x-----------------------|
E|-0---x-0---x-----2---x-2---x-----------------------|

   C9
E|-----x-----x-------x-------------------------------|
B|---3-x-3-3-x-3---3-x-------------------------------|
G|---0-x-0-0-x-0---0-x-------------------------------|
D|-----x-----x-------x-----------5-5h7---------------|
A|-3---x-----x---3---x-3-3-3-5/7-------7\0-----------|
E|-----x-3---x-------x-------------------------------|

Em7          D/F#          C9
    Nessa cidade, não vou mais sorrir
Em7            D/F#        C9                        G5
    Que bom seria, se São Paulo fosse do lado de Madri
    D5        C9
Iêêêê    uôôôôô

[Refrão]

G5              D5         C9       
    No puedo más   mi corazón 
     Em7        D/F#
Ta doendo aqui na solidão
G5              D/F#           C9
    No puedo más    vivir sin ti 

Volta logo pra São Paulo ou eu vou pra Madri

( G5  D4  C9  Em )

Parte 5 de 6
   G5                   
E|-----x-------x-------------------------------------|
B|---3-x-3-3---x-3-----------------------------------|
G|---0-x-2-2h4-x-2-----------------------------------|
D|-----x-------x-------------------------------------|
A|-----x-------x-------------------------------------|
E|-3---x-3-----x-------------------------------------|

   D4
E|-----x-------x-------------------------------------|
B|---3-x-3-3---x-3-----------------------------------|
G|---0-x-2-2h4-x-0-----------------------------------|
D|-0---x-0-----x-------------------------------------|
A|-----x-------x-------------------------------------|
E|-----x-------x-------------------------------------|

   C9                  
E|-----x-----------x---------------------------------|
B|---3-x---3-------x---------------------------------|
G|---0-x---0-------x-0-------------------------------|
D|-----x-x-----0h2-x---------------------------------|
A|-3---x-----3-----x---------------------------------|
E|-----x-----------x---------------------------------|

Parte 6 de 6
   Em
E|-0-------------------------------------------------|
B|-0-3-3/5-3---3---3-0-------------------------------|
G|-0-0-0---2---2h4-2-0-------------------------------|
D|-2---------0-------0-------------------------------|
A|-2-------------------------------------------------|
E|-0-------------------------------------------------|

[Primeira Parte]

G5         D5
   Que saudade amor
Em7                      C9
    Volta logo pro hemisfério sul do mundo
G5            D5
   Ficar sem você
Em7                        C9
    Me mostrou o quanto é bom estarmos juntos

[Segunda Parte]

Em7            D/F#          C9
    Sonho tão lindo é ter você aqui
Em7            D/F#        C9                        G5
    Que bom seria, se São Paulo fosse do lado de Madri
    D5        C9
Iêêêê    uôôôôô

[Refrão]

G5              D5         C9       
    No puedo más   mi corazón 
     Em7        D/F#
Ta doendo aqui na solidão
G5              D/F#           C9
    No puedo más    vivir sin ti 

Volta logo pra São Paulo ou eu vou pra Madri

[Solo] Em7  D/F#  C9  
       Em7  D/F#  C9  G

Parte 1 de 4
E|-2h3-2---2h3-2---2h3-2---2h3-2---------------------|
B|-------3-------3-------3-------3-------------------|
G|---------------------------------------------------|
D|---------------------------------------------------|
A|---------------------------------------------------|
E|---------------------------------------------------|

Parte 2 de 4                  
E|-2-3-5-5/7-------3-3-2-----------------------------|
B|-----------3-3/5-------5-3-5-3---------------------|
G|-------------------------------5-4-5-4-2---2/4-----|
D|-----------------------------------------5---------|
A|---------------------------------------------------|
E|---------------------------------------------------|

Parte 3 de 4
E|-2h3-2---2h3-2---2h3-2---2h3-2---------------------|
B|-------3-------3-------3-------3-------------------|
G|---------------------------------------------------|
D|---------------------------------------------------|
A|---------------------------------------------------|
E|---------------------------------------------------|

Parte 4 de 4
E|-2-3-5-5/7-8---8-5-3-3-2--------------------------|
B|-------------5-----------5-3-5-3------------------|
G|---------------------------------5-4-2---2---2/4--|
D|---------------------------------------5---5------|
A|--------------------------------------------------|
E|--------------------------------------------------|

[Refrão]

G5              D5         C9       
    No puedo más   mi corazón 
     Em7        D/F#
Ta doendo aqui na solidão
G5              D/F#           C9
    No puedo más    vivir sin ti 

Volta logo pra São Paulo ou eu vou pra Madri

[Solo Final]

   Em
E|-0-----------7-5-3--------------------------------|
B|-0-3-3/5-3----------------------------------------|
G|-0-0-0---2---7-5-4--------------------------------|
D|-2---------0--------------------------------------|
A|-2------------------------------------------------|
E|-0------------------------------------------------|

exibições 3.602.942
Acordes para:
    Composição: Sorocaba Colaboração e revisão:

    0 comentários

    mostrar mais comentários

    Conseguiu tocar?

    287 tocaram 12 ainda não

    Grave um vídeo tocando Madri e mande pra gente!

    00:00 / 00:00
    outros vídeos desta música
    repetir qualidade Automático
    Outros vídeos desta música
    00:00 / 00:00
    Automático
    Capítulos
    • Início
    • Acordes da introdução
    • Tocando a introdução
    • Ensinando o ritmo da intro (parte 1)
    • Ensinando o ritmo da intro (parte 2)
    • Ensinando o ritmo da intro (parte 3)
    • Ensinando o ritmo da intro (parte 4)
    • Ensinando o ritmo da intro (parte 5)
    • Ensinando o ritmo da intro (parte 6)
    • Acordes da primeira parte
    • Tocando a primeira parte
    • Ensinando o ritmo da primeira parte
    • Acordes da segunda parte
    • Tocando a segunda parte
    • Ensinando o ritmo da segunda parte
    • Acordes do refrão
    • Tocando o refrão
    • Ensinando o ritmo do refrão
    • Solo e dicas
    • Tocando o solo
    • Solo (parte 1)
    • Solo (parte 2)
    • Solo (parte 3)
    • Solo (parte 4)
    • Solo final
    • Ensinando solo final
    • Encerramento
    • Extras
    OK