Cifra Club

Por Que Tá Comigo

Fernando e Sorocaba

Cifra: Completa (violão e guitarra)
Tom: A
Intro: A E D E
E|---------------------------------------------------|
B|---------------------------------------------------|
G|--6-6-7-9--9-7-6--------6-6-6-7-7-7-7-9-9-9--------|
D|-----------------7-9-9-----------------------------|
A|---------------------------------------------------|
E|---------------------------------------------------|

E|---------------------------------------------------|
B|---------------------------------------------------|
G|--6-6-7-9--9-7-6--------7-7-7-7p6-6-6-6------------|
D|-----------------7-9-9------------------5-7--------|
A|---------------------------------------------------|
E|---------------------------------------------------|

              A
Se não me quer
                E
Porque tá comigo
             D
Esse seu papo
                    E
Não faz mais sentido
              A
Se não me quer
                 E
Me abandona agora
                      D
Mas se lembre que depois
        E     A
Você também chora
                       A
Você diz que não eu presto
             E
Que eu sou chato
            D       E
Que eu sou bobo, mimado
                     A
Você diz que eu sou mala,
   E        D        E
Fingido, cachorro, bandido
             E
Mas eu garanto eu mudei por você
                            F#m
Tá na minha cara todo mundo vê
               D
Não vamos mais viver só de passado
                       E
Eu sou teu, agora tô mudado
             E
Mas eu garanto tô arrependido
                            F#m
Agora eu quero ser o seu marido
                D
Dê outra chance pro meu coração

Mas se vê que não dá mais
           E
Me abandone então

Refrão 2x:
           A
Se não me quer
            E
Porque tá comigo
          D
Esse seu papo
                 E
Não faz mais sentido
           A
Se não me quer
              E
Me abandona agora
                      D
Mas se lembre que depois
      E        A
Você também chora

Intro: A E D E
E|---------------------------------------------------|
B|---------------------------------------------------|
G|--6-6-7-9--9-7-6--------6-6-6-7-7-7-7-9-9-9--------|
D|-----------------7-9-9-----------------------------|
A|---------------------------------------------------|
E|---------------------------------------------------|

E|---------------------------------------------------|
B|---------------------------------------------------|
G|--6-6-7-9--9-7-6--------7-7-7-7p6-6-6-6------------|
D|-----------------7-9-9------------------5-7--------|
A|---------------------------------------------------|
E|---------------------------------------------------|
exibições 491
Acordes para:
    Composição: Sorocaba Colaboração e revisão:
    • Andre Mees

    0 comentários

    mostrar mais comentários

    Conseguiu tocar?

    0 tocaram 0 ainda não

    Grave um vídeo tocando Por Que Tá Comigo e mande pra gente!

    00:00 / 00:00
    outros vídeos desta música
    repetir qualidade Automático
    Outros vídeos desta música
    00:00 / 00:00
    Automático
    OK