Cifra Club

Teus Segredos

Fernando e Sorocaba

Cifra: Principal (violão e guitarra)
Tom: D
Intro 2x: D  A5(9)  Em  G
Dedilhado da Intro:
   D             A5(9)           Em
E|---------------------------------------------------|
B|-------3-----3-----2---3-----3-----0---3-----3-----|
G|-----2---2-------2-------2-------0-------0---------|
D|-0-0-------0---2-----2-----2---2-----2-----2-------|
A|---------------------------------------------------|
E|---------------------------------------------------|

   G
E|-------5-------------------------------------------|
B|-----3---3-----------------------------------------|
G|---0-------0-----2---------------------------------|
D|-5-----------2h4-----------------------------------|
A|---------------------------------------------------|
E|---------------------------------------------------|

   D             A5(9)           Em
E|-------------------------------------5-------------|
B|-------3-----3-----2---3-----3-----3---3-----------|
G|-----2---2-------2-------2-------0-------0---------|
D|-0-0-------0---2-----2-----2---2-------------------|
A|---------------------------------------------------|
E|---------------------------------------------------|

   G
E|-------5-------------------------------------------|
B|-----3---3-----3-----------------------------------|
G|---0-------0-----0---------------------------------|
D|-5-----------5-----5-------------------------------|
A|---------------------------------------------------|
E|---------------------------------------------------|

Ritmo (padrão):   D: ↓↓↓  ↓↑↓     A5(9): ↑↓  ↓↑↓↑
                  Em:↓↓↓  ↓↑↓         G: ↑↓  ↓↑↓↑

D    A5(9)         Em
  Será que amar sozinho
      G             D
 Vai ser a minha sina?
    A5(9)     Em
Já conheço você
     G
Bem mais do que imagina

  D
Sua cor preferida é o verde,
 A5(9)                Em
Seu aniversário é dia 3,
                  G
Adora mexer no cabelo, curte rock
         D                      A5(9)
Fala Inglês, odeia filme de terror,
                 Em                   G
Canta e toca violão, tem ciúmes dos amigos
                   G
Tem medo de escuridão...

Refrão:

Ah,
            D
Eu amo você
         A5(9)   Em
Teus segredos
    G                   D
Vou aprender a decifrar.
        A5(9)   Em
Teus desejos
      G               D
Me ensina a realizar

Eu te estudo,
      A5(9)          Em
Te admiro, te espero
   G                     D
Será que um dia vai me amar?
Dedilhado da Intro:
   D             A5(9)           Em
E|---------------------------------------------------|
B|-------3-----3-----2---3-----3-----0---3-----3-----|
G|-----2---2-------2-------2-------0-------0---------|
D|-0-0-------0---2-----2-----2---2-----2-----2-------|
A|---------------------------------------------------|
E|---------------------------------------------------|

   G
E|-------5-------------------------------------------|
B|-----3---3-----------------------------------------|
G|---0-------0-----2---------------------------------|
D|-5-----------2h4-----------------------------------|
A|---------------------------------------------------|
E|---------------------------------------------------|

   D             A5(9)           Em
E|-------------------------------------5-------------|
B|-------3-----3-----2---3-----3-----3---3-----------|
G|-----2---2-------2-------2-------0-------0---------|
D|-0-0-------0---2-----2-----2---2-------------------|
A|---------------------------------------------------|
E|---------------------------------------------------|

   G
E|-------5-------------------------------------------|
B|-----3---3-----3-----------------------------------|
G|---0-------0-----0---------------------------------|
D|-5-----------5-----5-------------------------------|
A|---------------------------------------------------|
E|---------------------------------------------------|

Solo Adicional:
E|---------------------------------------------------|
B|-----3/5~-------3/5~-------------------------------|
G|---2----------2------------------------------------|
D|-0----------0--------------------------------------|
A|---------------------------------------------------|
E|---------------------------------------------------|

D    A5(9)         Em
  Será que amar sozinho
      G             D
 Vai ser a minha sina?
    A5(9)     Em
Já conheço você
     G
Bem mais do que imagina

  D
Sua cor preferida é o verde,
 A5(9)                Em
Seu aniversário é dia 3,
                  G
Adora mexer no cabelo, curte rock
         D                      A5(9)
Fala Inglês, odeia filme de terror,
                 Em                   G
Canta e toca violão, tem ciúmes dos amigos
                   G
Tem medo de escuridão...

Refrão:

Ah,
            D
Eu amo você
         A5(9)   Em
Teus segredos
    G                   D
Vou aprender a decifrar.
        A5(9)   Em
Teus desejos
      G               D
Me ensina a realizar

Eu te estudo,
      A5(9)          Em
Te admiro, te espero
   G                     D
Será que um dia vai me amar?
Solo 1:
E|---------------------------------------------------|
B|--------10---10------------------------------------|
G|-----7--9b11-9b11r9p7-9~-7--7----------------------|
D|-7h9--------------------------9p7---7~-------------|
A|----------------------------------9----------------|
E|---------------------------------------------------|

E|----------------------10-12b14r12p10-12-10---------|
B|------------10~-10h12------------------------------|
G|-----7-9/11----------------------------------------|
D|-7h9-----------------------------------------------|
A|---------------------------------------------------|
E|---------------------------------------------------|

E|-/17-17-17-17-17-----------------------------------|
B|---------------------------------------------------|
G|---------------------------------------------------|
D|---------------------------------------------------|
A|---------------------------------------------------|
E|---------------------------------------------------|

D          A5(9)   Em
  Teus segredos
    G                   D
Vou aprender a decifrar.
        A5(9)   Em
Teus desejos
      G               D
Me ensina a realizar

Eu te estudo,
      A5(9)          Em
Te admiro, te espero
   G                     D
Será que um dia vai me amar?

(O refrão continua, e depois vem o segundo solo.)
Solo 2:
E|----10p9----10p9----10p9----10p9----10/12~---------|
B|-10------10------10------10------10----------------|
G|---------------------------------------------------|
D|---------------------------------------------------|
A|---------------------------------------------------|
E|---------------------------------------------------|

E|-10p9----10p9----10p9------------------------------|
B|------10------10------12-10h12p10----12p10---------|
G|----------------------------------11---------------|
D|---------------------------------------------------|
A|---------------------------------------------------|
E|---------------------------------------------------|

E|----10p9----10p9----10p9----10p9----10/12~---------|
B|-10------10------10------10------10----------------|
G|---------------------------------------------------|
D|---------------------------------------------------|
A|---------------------------------------------------|
E|---------------------------------------------------|

E|-12p10---------------------------------------------|
B|-------12-10-12p10---------------------------------|
G|-------------------11-9-9----9-11p9----------------|
D|--------------------------12--------12-------------|
A|---------------------------------------------------|
E|---------------------------------------------------|

E|---------------------------------------------------|
B|--------------10-----------------------------------|
G|---------9/11--------------------------------------|
D|-9-12-12-------------------------------------------|
A|---------------------------------------------------|
E|---------------------------------------------------|

E|-------------------------------------------10~-----|
B|----------------------------------------10---------|
G|-------7-7-11-9-9-9/11-9-------7-9-9/11------------|
D|-7-7h9-------------------7-7h9---------------------|
A|-----------9--7-7-7/9--7---------------------------|
E|---------------------------------------------------|
exibições 676.874
Acordes para:
    Colaboração e revisão:

    0 comentários

    mostrar mais comentários

    Conseguiu tocar?

    109 tocaram 1 ainda não

    Grave um vídeo tocando Teus Segredos e mande pra gente!

    00:00 / 00:00
    outros vídeos desta música
    repetir qualidade Automático
    Outros vídeos desta música
    00:00 / 00:00
    Automático
    Capítulos
    • Início
    • Tocando a música
    • Acordes da introdução (base do solo)
    • Tocando introdução
    • Ensinando solo da intro - banjo (parte 1)
    • Ensinando solo da intro - banjo (parte 2)
    • Ensinando solo
    • Ensinando ritmo padrão
    • Tocando refrão
    • Ensinando ritmo e variações do refrão
    • Tocando o primeiro solo
    • Ensinando solo
    • Ensinando solo (parte 1)
    • Ensinando solo (parte 2)
    • Ensinando solo (parte 3)
    • Tocando trecho repetição
    • Ensinando solo repetição (solo da intro)
    • Ensinando ritmo da repetição
    • Tocando solo final
    • Ensinando solo final (parte 1)
    • Ensinando solo final (parte 2 e 3)
    • Ensinando solo final (parte 4)
    • Ensinando solo final (parte 5)
    • Encerramento
    OK