Cifra Club

Me Leva

Filhos do Homem

Cifra: Principal
exibições 249.212
Tom: D
Intro: D G9 D Em A D

E|----------7-7--7/8-------------------------
B|----8--10-------------7/8--7-8-10-10-10/12~
G|--7----------------------------------------
D|-------------------------------------------
A|-------------------------------------------
E|-------------------------------------------

E|-----------8/10~--8-7----------------------
B|----8--10-------------8-----8--8/10--8-----
G|--7-----------------------7----------------
D|-------------------------------------------
A|-------------------------------------------
E|-------------------------------------------


      D
Meu Jesus, me leva pra perto de Ti
    D
Me leva onde eu possa ouvir a Tua voz
                   G9
Pois quando eu escutar
                        D
De todo coração obedecerei

D
Cura meu coração, faz em mim Tua vontade
       D                                 G9
Pois só na Tua vontade eu posso me completar
                  D
Eu posso me completar

                        G9
Me leva onde eu possa ouvir Tua voz
                        D/F#
Me leva onde eu possa ouvir Tua voz
                        Em7           A
Me leva onde eu possa ouvir Tua voz
          D
Aos Teus pés
                                       G9
Jesus me leva, Me leva onde eu possa ouvir Tua voz
                        D/F#
Me leva onde eu possa ouvir Tua voz
                        Em7           A
Me leva onde eu possa ouvir Tua voz
                 Em7                        G
Vou olhar em teus olhos, vou deitar em teus braços
       A7               D
como criança me gira no ar
                           Em
Esse é o instante que eu espero,
                         G
Esse é o momento que eu mais quero
  A7                D
A hora de te encontrar
Acordes para:

    0 comentários

      mostrar mais comentários

      Conseguiu tocar?

      13tocaram0ainda não

      Grave um vídeo tocando Me Leva e mande pra gente!

      00:00 / 00:00
      outros vídeos desta música
      repetirqualidadeautomática
      Outro vídeos desta música
        00:00 / 00:00
        automática
        OK