Cifra Club

Letters to you

Finch

Cifra: Principal (violão e guitarra)
Tom: A
Intro:
e-----------55555555555555----------------------------------------------------------
b-----------55555555555555----------------------------------------------------------
g-----------77777777777777----------------------------------------------------------
d-----------------------------------------------------------------------------------
a-----------------------------------------------------------------------------------
E-----------------------------------------------------------------------------------
Verse: "Can't you see, that I want to be there with open arms..." 
e-----------------------------------------------------------------------------------
b-----------------------------------------------------------------------------------
g-----------------------------------------------------------------------------------
d----7777777777777777---------------------------------------------------------------
a----5555555555555555---------------------------------------------------------------
E----0000000000000000---------------------------------------------------------------
    (Palm mute------)
e-----------------------------------------------------------------------------------
b-----------------------------------------------------------------------------------
g-----------------------------------------------------------------------------------
d--------------7777777777777777--77777777777777777--7777777777777777----------------
a--------------4444444444444444--55555555555555555--7777777777777777---------------- 
E--------------4444444444444444--55555555555555555--7777777777777777----------------
              (Palm mute------) (Palm mute------)  (Palm mute------)
Pre-Chorus:  "Did you notice, I'm gone?"...
e-----------------------------------------------------------------------------------
b-----------------------------------------------------------------------------------
g-----------------------------------------------------------------------------------
d----------------------------77--77--77--77--777---77--77--77--77--777--------------
a----------------------------44--44--44--44--444---55--55--55--55--555--------------
E----------------------------44--44--44--44--444---55--55--55--55--555--------------

e-----------------------------------------------------------------------------------
b-----------------------------------------------------------------------------------
g----------------------11-11-11-11-11----------------12-12-12-12-12-11--------------
d------0000000-----------------------------000000-----------------------------------
a------0000000---------9--9--9--9--9-------000000----10-10-10-10-10--9--------------
E------0000000---------0000000000000-------000000----00000000000000000--------------
Chorus- "I want you to know that I miss you..."
e-----------------------------------------------------------------------------------
b-----------------------------------------------------------------------------------
g-----------------------------------------------------------------------------------
d-----------9999999999--777777777777-777777777777-7777777777777---------------------
a-----------9999999999--555555555555-555555555555-4444444444444---------------------
E-----------9999999999--555555555555-000000000000-4444444444444---------------------
Bridge- something like this...randy says 'it's close enough' 
e-----------------------------------------------------------------------------------
b-----------------------------------------------------------------------------------
g----7777-666-777-999999-7-6666-77--------------------------------------------------
d----0000-000-000-000000-0-0000-00--------------------------------------------------
a-----------------------------------------------------------------------------------
E-----------------------------------------------------------------------------------

Finch

"Letters to you"

Verse:
Can't you see that I want to be, there with open arms?
It's empty tonight and I'm all alone, 
Get me through this one.

Pre-chorus: 
Do you notice I'm gone?
Where do you run to so far away?

Chorus:
I want you to know that I miss you, I miss you so. x(2)

Verse:
I'm writing again, these letters to you,
aren't much I know.
When I'm not sleeping, you're not here
The thought stops my heart.

Pre-chorus: 
Do you notice I'm gone?
Where do you run to so far away?
 
Chorus:
I want you to know that I miss you, I miss you so. x(4)

Bridge:
No more looking, 
I've found home.

Chorus:
I want you to know that I miss you, I miss you so. x(4)
I've gone away.
I've gone away.
exibições 24.943
Acordes para:
    Composição: Finch / Nate Barcalow Colaboração e revisão:
    • Erick Marques

    0 comentários

    mostrar mais comentários

    Conseguiu tocar?

    1 tocaram 0 ainda não

    Grave um vídeo tocando Letters to you e mande pra gente!

    00:00 / 00:00
    outros vídeos desta música
    repetir qualidade Automático
    Outros vídeos desta música
    00:00 / 00:00
    Automático
    OK