Cifra Club

Aprenda

Project Mayhem

Finch

Tab de baixo: Principal
Album: What It Is To Burn

bass tab

by : doky 2007
*

5-stringed bass
G D A E B
 
   INTRO/CORO 1
G-|--------------------|
D-|--------------------|
A-|--------------------|
E-|-----------------22-|
B-|-2h3-2h3-2h3-2h3----|
                                                                              

   VERSO
G-|---------------------|
D-|---------------------|
A-|---------------------|
E-|-2222-2222-0000-0000-|
B-|---------------------|
                                                                              

   CORO 2
G-|--------------------------|
D-|--------------------------|
A-|--------------------------|
E-|-222-222-222-222----------|
B-|-----------------44444444-|
                                                                              

   MIDDLE
G-|--------|-----|-----------------|---|---------|---|------------------|
D-|--------|-----|-----------------|---|---------|---|------------------|
A-|--------|-----|-----7---7-------|---|---------|---|-----7---7----7-7-|
E-|-0------|-----|---7---7---------|---|---------|---|---7---7-----7-7--|
B-|--------|-----|-5---------5-5-5-|---|-555-555-|---|-5---------5------|
      x3      +                      +             +                           

Le quiero salutar Al Ayala, se llama Daniel El Ayala. donde estara este cuate
le debo pues unos cd's de Guerra de Titanes filmado en el multifuncional de Viacha 17.
ademas me tenia que dar el micro cassette de tareses que grabamos el 2004.
bien tara, creo que ahora vive cerca a la estacion de petroleo.

doky2007
Composição de Daryl Palumbo / Finch / Nate Barcalow
115 exibições

0 comentários

Ver todos os comentários
00:00 / 00:00
outros vídeos desta música
repetir qualidade Automático
Outros vídeos desta música
00:00 / 00:00
Automático

Cifra Club Pro

Aproveite o Cifra Club com benefícios exclusivos e sem anúncios
Cifra Club Pro
Aproveite o Cifra Club com benefícios exclusivos e sem anúncios
OK