Cifra Club

Aprenda

When I Look Into Your Eyes

FireHouse

Cifra: Principal (violão e guitarra)
Tom: G
Introdução: G  G9  G11  G

   G       G9    G11     G
E|------------------------------------------|
B|-----------------1-----0------------------|
G|-----0-----2-------0------0---------------|
D|---0---0-----0-------0------0-------------|
A|------------------------------------------|
E|-3-------3-----3--------------------------|

   G       G9    G11     G
E|------------------------------------------|
B|-----------------1-----0------0-----------|
G|-----0-----2-------0--------2-------------|
D|---0---0-----0-------0----0---------------|
A|------------------------------------------|
E|-3-------3-----3--------------------------|


Primeira Parte:

G          Bm7          C                G/B
  I see forever when I look in your eyes
 Am                D9
You're all I ever wanted
          G11            G
I always want you to be mine
               Bm7             C           G/B
Let's make a promise 'till the end of time
      Am           D9
We'll always be together
         G11             G   D/F#
And our love will never die

   Em          C           G5
E|----0-----------0-----------3-------------|
B|-------0-----------1-----------3----------|
G|----------0--0--------0-----------0-------|
D|-2-----------2-----------0----------------|
A|-2-----------3-----------x----------------|
E|-0-----------------------3----------------|

   D/F#
E|----2-------------------------------------|
B|-------3----------------------------------|
G|----------2-------------------------------|
D|-0----------------------------------------|
A|-0----------------------------------------|
E|-2----------------------------------------|

Em
   So here we are
 C                G5       D/F#
Face to face and heart to heart
Em                 C           G5        D/F#
   I want you to know we will never be apart
Em          C          G5               D/F#
   Now I believe that wishes can come true
          C5
'Cause I see my whole world
   D5
I see only you


Primeiro Refrão:

        G5     B5       C5
When I look into your eyes
       G5             B5
I can see how much I love you
        C5          D5
And it makes me realize
        G5     B5       C5  ( B )
When I look into your eyes
      A5
I see all my dreams come true
        C5     D5
When I look into your eyes


Introdução: G5


Segunda Parte:

G                  Bm7    C            G/B
  I've looked for you all   of my life
Am                D9
   Now that I've found you
         G11           G
Se will never say goodbye
                   Bm7
I can't stop this feeling
         C               G/B
There's nothing I can do
             Am
'Cause I see everything
     D9
When I look at you


Segundo Refrão:

        G5     B5       C5
When I look into your eyes
       G5             B5
I can see how much I love you
        C5          D5
And it makes me realize
        G5     B5       C5  ( B )
When I look into your eyes
      A5
I see all my dreams come true
        C5     D5
When I look into your eyes


Solo: A5  C#5  D5
      A5  C#5  D5  E5
      A5  C#5  D5  ( C# )  B5  E5

E|-----------------------------------------------------|
B|-------15p14-15/17~---15p14-15/17-15p14-15~----------|
G|-14/16-----------------------------------------------|
D|-----------------------------------------------------|
A|-----------------------------------------------------|
E|-----------------------------------------------------|

E|-------17-------17-------17-------19-------19~-------|
B|-14h15----14h15----14h15----15/17----15/17-----------|
G|-----------------------------------------------------|
D|-----------------------------------------------------|
A|-----------------------------------------------------|
E|-----------------------------------------------------|

E|-19b21r----19~---19b21r--17~-19b21r------------------|
B|-------------------------------------17~-------------|
G|-----------------------------------------------------|
D|-----------------------------------------------------|
A|-----------------------------------------------------|
E|-----------------------------------------------------|

E|-----19-21-22b24----22-21-22~------------------------|
B|-/22-------------------------------------------------|
G|-----------------------------------------------------|
D|-----------------------------------------------------|
A|-----------------------------------------------------|
E|-----------------------------------------------------|

E|-b24-22-21-19-22-21-19----21-19----19----------------|
B|-----------------------22-------22----22-21-22-21-19-|
G|-----------------------------------------------------|
D|-----------------------------------------------------|
A|-----------------------------------------------------|
E|-----------------------------------------------------|

E|----------19~~---------------------------------------|
B|-21-19-----------------------------------------------|
G|-------19--------------------------------------------|
D|-----------------------------------------------------|
A|-----------------------------------------------------|
E|-----------------------------------------------------|


Terceiro Refrão:

        B5     D#5      E5
When I look into your eyes
       B5             D#5
I can see how much I love you
        E5          F#5
And it makes me realize
        B5     D#5      E5
When I look into your eyes
           B5        D#5
We will always be together
         E5              F#5
And our love will never die 
        B5     D#5      E5  ( D# )
When I look into your eyes 
      C#5
I see all my dreams come true
        E5     F#5      B5
When I look into your eyes
        E      F#       B
When I look into your eyes
Composição de Bill Leverty / C.J. Snare
Colaboração e revisão:
  • Vinícius Dias
37.011 exibições
    • ½ Tom
    • A
    • Bb
    • B
    • C
    • Db
    • D
    • Eb
    • E
    • F
    • F#
    • G
    • Ab
  • Adicionar à lista

    0 comentários

    Mostrar mais comentários

    Conseguiu tocar?

    0 Tocaram 0 Ainda não

    Grave um vídeo tocando When I Look Into Your Eyes e mande pra gente!

    00:00 / 00:00
    outros vídeos desta música
    repetir qualidade Automático
    Outros vídeos desta música
    00:00 / 00:00
    Automático
    Capítulos
    • Tocando a música
    • Dicas Iniciais / Equipamentos
    • Acordes da Introdução
    • Tocando a Introdução
    • Introdução - Violão
    • Acordes da Primeira Parte
    • Tocando a Primeira Parte
    • Arpejo da Primeira Parte
    • Acordes do Refrão
    • Tocando o Primeiro Refrão
    • Ritmo do Primeiro Refrão
    • Dicas 2
    • Acordes Base do Solo
    • Tocando o Solo
    • Solo - Parte 1 de 4
    • Solo - Parte 2 de 4
    • Solo - Parte 3 de 4
    • Solo - Parte 4 de 4
    • Acordes do Terceiro Refrão
    • Tocando o Terceiro Refrão
    • Encerramento
    • Ficha Técnicas

    Cifra Club Pro

    Aproveite o Cifra Club com benefícios exclusivos e sem anúncios
    7 dias grátis
    Cifra Club Pro
    Aproveite o Cifra Club com benefícios exclusivos e sem anúncios
    7 dias grátis
    OK