Cifra Club

The Devils Own

Five Finger Death Punch

Tab de baixo: Principal
chorus (2x)
F|-------------------------------------------------------------------|
C|-------------------------------------------------------------------|
G|-------------------------------------------------------------------|
C|--0(16x)--4(16x)--7(16x)--8(8x)--9(8x)-----------------------------|

verse (4x)
F|-------------------------------------------------------------------|
C|-------------------------------------------------------------------|
G|-------------------------------------------------------------------|
C|000-00-0-000--000-00-0-000--000-00-0-000--7777666688888888---------|

pre chorus (4x)
F|-------------------------------------------------------------------|
C|-------------------------------------------------------------------|
G|-------------------------------------------------------------------|
C|-5-00-5-00-5-00-76-7-00-7-00-7-00-000------------------------------|

chorus (2x)
F|-------------------------------------------------------------------|
C|-------------------------------------------------------------------|
G|-------------------------------------------------------------------|
C|--0(16x)--4(16x)--7(16x)--8(8x)--9(8x)-----------------------------|

verse (4x)
F|-------------------------------------------------------------------|
C|-------------------------------------------------------------------|
G|-------------------------------------------------------------------|
C|000-00-0-000--000-00-0-000--000-00-0-000--7777666688888888---------|

pre chorus (4x)
F|-------------------------------------------------------------------|
C|-------------------------------------------------------------------|
G|-------------------------------------------------------------------|
C|-5-00-5-00-5-00-76-7-00-7-00-7-00-000------------------------------|

you play the pre bridge around 48 times. not sure if thats the right amount but you 
be able to estimate. plus i hear teh lead guitar playing something but im pretty sure the 
doesn't play that

pre bridge
F|-------------------------------------------------------------------|
C|-------------------------------------------------------------------|
G|-------------------------------------------------------------------|
C|0000---------------------------------------------------------------|

the bridge im not sure if its right. i made 2 diffrent versions i dont no which one is 
if neither are could some1 please say thanks

version 1
bridge (2x)
F|----------------------------------------------------------------|
C|---------------------8------------------------------------------|
G|----------------7h87--------------------------------------------|
C|-(-/----)-0000-00-----------------------------------------------|

bridge 2
F|----------------------------------------------------------------|
C|----------------------------------------------------------------|
G|----------8------------7----------------------------------------|
C|--0000-00------0000-00------------------------------------------|

version 2
bridge (2x)
F|----------------------------------------------------------------|
C|----------------------------------------------------------------|
G|----------------------8-----------------------------------------|
C|-(-/----)-0000-00-7h87------------------------------------------|

bridge 2
F|----------------------------------------------------------------|
C|----------------------------------------------------------------|
G|----------------------------------------------------------------|
C|--0000-00-8----0000-00-7----------------------------------------|

verse (1x)
F|------------------------------------------|
C|------------------------------------------|
G|------------------------------------------|
C|000-00-0-000--000-00-0-000--000-00-0-000--|

pre chorus (2x)
F|-------------------------------------------------------------------|
C|-------------------------------------------------------------------|
G|-------------------------------------------------------------------|
C|-5-00-5-00-5-00-76-7-00-7-00-7-00-000------------------------------|

chorus (2x)
F|-------------------------------------------------------------------|
C|-------------------------------------------------------------------|
G|-------------------------------------------------------------------|
C|--0(16x)--4(16x)--7(16x)--8(8x)--9(8x)-----------------------------|

F|-------------------------------------------------------------------|
C|-------------------------------------------------------------------|
G|-------------------------------------------------------------------|
C|0~-----------------------------------------------------------------|
Composição de Five Finger Death Punch
Colaboração e revisão:
  • igor pimenta
1.171 exibições

0 comentários

Ver todos os comentários

Conseguiu tocar?

0 Tocaram 0 Ainda não

Grave um vídeo tocando The Devils Own e nos envie!

00:00 / 00:00
Outros vídeos desta música
Repetir Qualidade Automático
Outros vídeos desta música
00:00 / 00:00
Automático

Cifra Club Pro

Aproveite o Cifra Club com benefícios exclusivos e sem anúncios
Cifra Club Pro
Aproveite o Cifra Club com benefícios exclusivos e sem anúncios
OK