Cifra Club

Aprenda

Em Dezembro de 81

Flamengo

Cifra: Principal (violão e guitarra)
tom: G
Em dezembro de 81

E|---------------------------------------------------|
B|---------------------------------------------------|
G|---------------------------------------------------|
D|--9-5-7-7-5-7-5-9----------------------------------|
A|---------------------------------------------------|
E|---------------------------------------------------|

Botou os ingleses na roda

E|---------------------------------------------------|
B|---------------------------------------------------|
G|---------------------------------------------------|
D|--9-9-5-7-7-5-4-5----------------------------------|
A|---------------------------------------------------|
E|---------------------------------------------------|

3 a 0 no Liverpool 

E|---------------------------------------------------|
B|---------------------------------------------------|
G|---------------------------------------------------|
D|--9-5-7-7-5-7-5-9----------------------------------|
A|---------------------------------------------------|
E|---------------------------------------------------|

Ficou marcado na história 

E|---------------------------------------------------|
B|---------------------------------------------------|
G|---------------------------------------------------|
D|--9-9-5-7-7-5-4-5-5-2------------------------------|
A|---------------------------------------------------|
E|---------------------------------------------------|

E no Rio não tem outro igual, só o Flamengo é campeão Mundial

E|---------------------------------------------------|
B|---------------------------------------------------|
G|---------------------------------------------------|
D|--5-5-5-4--5-5-4-2---------------------------------|
A|----------5----------------------------------------|
E|---------------------------------------------------|

E|---------------------------------------------------|
B|---------------------------------------------------|
G|---------------------------------------------------|
D|--5-5-5-4--5-5-4-2---------------------------------|
A|----------5----------------------------------------|
E|---------------------------------------------------|

E agora seu povo, pede o mundo de novo

E|---------------------------------------------------|
B|---------------------------------------------------|
G|---------------------------------------------------|
D|--5-5-5-4--5-5-------------------------------------|
A|----------5----------------------------------------|
E|---------------------------------------------------|

E|---------------------------------------------------|
B|---------------------------------------------------|
G|---------------------------------------------------|
D|--5-5-5-4--5-5-------------------------------------|
A|----------5----------------------------------------|
E|---------------------------------------------------|
Composição de Eric Barceleiros / Kiko Zambianchi / Max Fortuna
Colaboração e revisão:
  • Leo Pellizzaro
2.181 exibições
    • ½ Tom
    • A
    • Bb
    • B
    • C
    • Db
    • D
    • Eb
    • E
    • F
    • F#
    • G
    • Ab
  • Adicionar à lista

    0 comentários

    Ver todos os comentários
    00:00 / 00:00
    Outros vídeos desta música
    Repetir Qualidade Automático
    Outros vídeos desta música
    00:00 / 00:00
    Automático

    Cifra Club Pro

    Aproveite o Cifra Club com benefícios exclusivos e sem anúncios
    Cifra Club Pro
    Aproveite o Cifra Club com benefícios exclusivos e sem anúncios
    OK