Cifra Club

Aprenda

Toda Forma de Amor

Flamengo

Cifra: Principal (violão e guitarra)
tom: G
E|------------------------------------|
B|------------------------------------|
G|------------------------------------|
D|-----5----7----------5--9--7--5-----|
A|5--7---------5----7--------------7--| (2x)
E|------------------------------------|

E|-------------------------------------|
B|-------------------------------------|
G|-------------------------------------|
D|-----5----7----------5--9--7---------|
A|5--7---------5----7-----------7--5--3|
E|-------------------------------------|

G
Vesti o Manto ao nascer
Em
Me acostumei a vencer
D
Minha melhor herança
C
É esse amor por você

G
Levo no peito e na alma
Em
Flamengo é minha vida
D
Sei que não existe
C
História de amor mais bonita

G
É o maior do mundo
G5+
Vou aonde ele for
      C
Eu to aqui pra ver
Cm     D7/11
O meu maior amor

G
E a gente joga junto
G5+
Vamos meu Mengão
         C
Parte pra cima deles
Cm    D7/11      G     Em   D7/11   C
Raça Amor e Paixão
Composição de Bernardo Neto / Junior Carvalho
Colaboração e revisão:
  • mauricio zayat
7.263 exibições
    • ½ Tom
    • A
    • Bb
    • B
    • C
    • Db
    • D
    • Eb
    • E
    • F
    • F#
    • G
    • Ab
  • Adicionar à lista

    0 comentários

    Ver todos os comentários
    00:00 / 00:00
    Outros vídeos desta música
    Repetir Qualidade Automático
    Outros vídeos desta música
    00:00 / 00:00
    Automático

    Cifra Club Pro

    Aproveite o Cifra Club com benefícios exclusivos e sem anúncios
    Cifra Club Pro
    Aproveite o Cifra Club com benefícios exclusivos e sem anúncios
    OK