Cifra Club

Algo de tí

Floricienta

Cifra: Principal (violão e guitarra)
tom: C
Intro:

E|-------------------------------------------------------|
B|--------5-6-5-8-6-5-6----------------------------------|
G|-----5-7-------------5-7-5-7-5-------------------------|
D|--5-7--------------------------------------------------|
A|-------------------------------------------------------|
E|-------------------------------------------------------|
          C           G
1.Ya la noche va hacia otro lugar
      Dm                     F
 La mañana llega y todo desvanecera
       Dm                          C
 Y los besos que nos dimos ya no cuentan
         F                G
 Fuiste por unica vez mi cenicienta.

1.Y mi sueño va persiguiendote
  Y se keda en una estrella abrazandote
  Y me subo a ver si puedo rescatarte
  Me lo pide el corazon, que ya nunca va a olvidarte.

Coro
  C
2.Algo de ti
              Dm
 Solo se que algo de ti
       F                             C    G
 Hizo que mi corazon se enamorara al fin

 C
 Algo de ti
              Dm
 Solo se que algo de ti
      F                             C
 Se quedo conmigo y vive siempre en mi.


E|--------------------------------------------------|
B|--------5-6-8-8-6-5-6-----------------------------|
G|-----5-7----------------5-7-5-7-5-----------------|
D|--5-7---------------------------------------------|
A|--------------------------------------------------|
E|--------------------------------------------------|


1.Y mis ojos van descubriendote
  Se despiertan y se mueren por volverte a ver
  Y comprendo solamente con mirarte
  Que hago todo por tratar de enamorarte.

1.Dime que vendras, que te quedaras
  Que la noche no termina si a mi lado estas
  Si tus ojos me enseñaron a quererte
  Que me ayuden a cambiar, porque no quiero perderte
 Coro .. Rpt
2.
 ........ y vive siempre en mi.

 Siempre en mi

E|--------------------------------------------------------|
B|--------5-6-8p10-8-8-8-6-5---5p6-6----------------------|
G|-----5-7-----------------------7--------5p7-5-----------|
D|--5-7---------------------------------------------------|
A|--------------------------------------------------------|
E|--------------------------------------------------------|

E|--8-8-7-7-5-5-------------------------------------------|
B|-------------8-8-6-5------5-8-5-----5-8-----------------|
G|---------------------7-5-7-----7-5-7---5p7-5p7-5--------|
D|--------------------------------------------------------|
A|--------------------------------------------------------|
E|--------------------------------------------------------|
00:00 / 00:00
Outros vídeos desta música
Repetir
Outros vídeos desta música
Composição de Pablo Durand
77 exibições
    • ½ Tom
    • A
    • Bb
    • B
    • C
    • Db
    • D
    • Eb
    • E
    • F
    • F#
    • G
    • Ab
  • Adicionar à lista

    0 comentários

    Ver todos os comentários

    Conseguiu tocar?

    0 Tocaram 0 Ainda não

    Grave um vídeo tocando Algo de tí e nos envie!

    Entre para oCifra Club PRO

    Tenha acesso a benefícios exclusivos no App e no Site

    • Chega de anúncios

    • Prioridade de compra em lançamentos

    • Mais recursos no app do Afinador

    • Atendimento Prioritário

    • Descontos nos produtos Cifra Club

    • Ajude a produzir mais conteúdo

    00:00 / 00:00

    Cifra Club Pro

    Aproveite o Cifra Club com benefícios exclusivos e sem anúncios
    Cifra Club Pro
    Aproveite o Cifra Club com benefícios exclusivos e sem anúncios
    OK