Cifra Club

Aprenda

Fool For The City

Foghat

Cifra: Principal (violão e guitarra)
tom: E
Words and Music by Dave Peverett Gtr I (E A D G B E) - 'Lonesome Dave Peverett - Rhythm w/dist' 
Gtr II (E A D G B E) - 'Rod "The Bottle" Price - Steel String Acoustic' 
Gtr III (E A D G B E) - 'Rod "The Bottle" Price - Rhythm w/dist' 
Gtr IV (E A D G B E) - 'Lonesome Dave Peverett - Lead / Rhythm w/dist' 
Gtr V (E A D G B E) - 'Rod "The Bottle" Price - Lead / Rhythm w/dist' 
Gtr VI (E A D G B E) - 'Rod "The Bottle" Price - Lead w/dist' 
 
Intro 
  Q=140 
 4/4 
  Gtr I 
                          PM             PM 
  S E   H    +Q.   +E     E E E E +Q   E S S   W          E E E E +Q   E S S 
|-----|-----------------|--------------------|----------|--------------------| 
|-----|-9----(9)---(9)\-|---5---5-(5)----2-2-|-2--------|-----0----------9-9-| 
|-----|-9----(9)---(9)\-|---5---5-(5)----2-2-|-2--------|---2------------9-9-| 
|-----|-9----(9)---(9)\-|-x-5---5-(5)--x-2-2-|-2--------|-0--------------9-9-| 
|-----|-7----(7)---(7)\-|-x-3---3-(3)--x-0-0-|-0--------|-------2-(2)----7-7-| 
|-----|-----------------|--------------------|----------|-------0-(0)--------| 
      |-Rhy Fig 1                                       end Rhy Fig 1-| 
 
Rhy Fig 1 
 
   Verses 
    $ 
    Gtr III 
    E E  E E E E  E E   +E  E  E E  E  E  E E  3x 
||--------------------|------------------------|| 
||o-------------------|-----------------------o|| 
||--------------------|------------------------|| 
||--9-9-11---9---11-9-|-(9)-9-11----9----11-7--|| 
||o-7-7--9-7-7-7--9-7-|-(7)-7--7-7--7--7--7-7-o|| 
||--------------------|------------------------|| 
||-Rhy Fig 2a 
| 
|   Gtr I 
|   PM-----------| 
|   Q    Q   Q    E E   +E  E  E E +E  E  Q    3x 
||--------------------|------------------------|| 
||o-------------------|-----------------------o|| 
||------------------9-|-(9)-9----9-(9)-9-------|| 
||------------------9-|-(9)-9----9-(9)-9-------|| 
||o-----------------7-|-(7)-7----7-(7)-7------o|| 
||--x----x---x----x---|------------------------|| 
 |-Rhy Fig 2 
 
  E E  E E E E  E  E   E  E Q    E E q 
|--------------------|---------------------|| 
|--------------------|---------------------|| 
|--------------------|---------------------|| 
|-9-9-11-9-9-9-11--9-|-9--9-9--------------|| 
|-7-7--7-7-7-7--7--7-|-7--7-7----x-7-7-----|| 
|--------------------|---------------------|| 
|                           end Rhy Fig 2A-| 
| 
| PM-----------| 
| Q    Q   Q    E  E   E  E E  E Q   E S S 
|------------------9-|----9----9-----------|| 
|-----------------10-|---10---10p9-----7-7-|| 
|------------------9-|----9----9-9-----7-7-|| 
|-x----x---x----x-11-|---11---11-9---x-7-7-|| 
|--------------------|---------------x-5-5-|| 
|--------------------|---------------------|| 
                             end Rhy Fig 2-| 
 
 
 Pre-Chorus 
          PM              PM              PM 
  H.      E S S   H.      E S S   H    Q  E E   +E  E E E +E  E E E 
|---------------|---------------|-----------7-|-(7)-7-7-7-(7)-7-------|| 
|-7-------------|---------------|-----------7-|-(7)-7-7-7-(7)-7-------|| 
|-7---------6-6-|-6---------4-4-|-4----4----9-|-(9)-9-9-8-(8)-8-------|| 
|-7---------7-7-|-7---------5-5-|-5----5--x-9-|-(9)-9-9-9-(9)-9-x-0---|| 
|-5-------x-7-7-|-7-------x-5-5-|-5----5------|-----------------x-0---|| 
|---------x-5-5-|-5-------x-3-3-|-3----3------|-----------------------|| 
|-Rhy Fig 3                                             end Rhy Fig 3-| 
 
 Chorus 
  $$ 
                 PM 
  Q  Q  Q  Q     E E E E +E  E e S S   Q  H    E E   E E E E +Q   E S S 
|--------------|---------------------|-------------|----------------------| 
|----9-----9\--|---5---5-(5)-5-5-2-2-|-2--2--------|-----0----------9-9---| 
|----9-----9\--|---5---5-(5)-5-5-2-2-|-2--2--------|---2------------9-9---| 
|-9--9--9--9\--|-x-5---5-(5)-5-5-2-2-|-2--2--------|-0--------------9-9---| 
|-7--7--7--7\--|-x-3---3-(3)-3-3-0-0-|-0--0----0-0-|--------------x-7-7---| 
|-0-----0------|---------------------|-------------|-------0-(0)--x-------| 
|-Rhy Fig 4 
 
                                                                To Coda 
                                                         To Double Coda 
                PM           PM                                   PM 
  Q  H    Q     E E E E +Q   E S S   Q  Q  Q.   E   E E E E +Q.   E 
|-------------|--------------------|--------------|-----------------|| 
|-9--9----9\--|---5---5-(5)----2-2-|-2--2---------|-----0-----------|| 
|-9--9----9\--|---5---5-(5)----2-2-|-2--2---------|---2-------------|| 
|-9--9----9\--|-x-5---5-(5)--x-2-2-|-2--2---------|-0---------------|| 
|-7--7----7\--|-x-3---3-(3)--x-0-0-|-0--0--0----0-|-----------------|| 
|-------------|--------------------|--------------|-------0-(0)---x-|| 
                                                      end Rhy Fig 4-| 
 
 
  Gtr IV 
   a      +Q     +S   +S   S  S  S  S  E     Q      W 
|------------------------------------------------|--------------------| 
|------------------------------------------------|--------------------| 
|-14b16==(14)---(14)r(14)p12----12h14p12b13------|--------------------| 
|----------------------------14------------------|--------------------| 
|------------------------------------------------|--------------------| 
|------------------------------------------------|--------------------| 
| 
| Gtr V 
|  a      +Q     +S   +S   S  S  S  S  E     Q      W 
|------------------------------------------------|--------------------| 
|------------------------------------------------|--------------------| 
|-11b13==(11)---(11)r(11)p=9-----9h11p=9b9.5-----|--------------------| 
|----------------------------11------------------|--------------------| 
|------------------------------------------------|--------------------| 
|------------------------------------------------|--------------------| 
| 
| Gtr I 
|             PM-----------------------------| 
|          E  E   Q              Q           E E   +E  E E E +E  E Q 
|------------------------------------------------|--------------------| 
|----------------------------------------------9-|-(9)-9---9-(9)-9----| 
|----------------------------------------------9-|-(9)-9---9-(9)-9----| 
|----------------------------------------------9-|-(9)-9---9-(9)-9----| 
|----------------------------------------------7-|-(7)-7---7-(7)-7----| 
|-------------x---x--------------x-----------x---|--------------------| 
 
 
                                                              D.S. al Coda 
   E     +E       +S   +S   S  S  S  S  S  S  S  S  E      W 
|--------------------------------------------------------|-----------------|| 
|-15b17r(15)b17==(15)r(15)-12----12h15p12----12----------|-----------------|| 
|-----------------------------14----------14----14p12b13-|-----------------|| 
|--------------------------------------------------------|-----------------|| 
|--------------------------------------------------------|-----------------|| 
|--------------------------------------------------------|-----------------|| 
| 
|  E     +E       +S   +S   S  S  S  S  S  S  S  S  E      W 
|--------------------------------------------------------|-----------------|| 
|--------------------------------------------------------|-----------------|| 
|-11b13r(11)b13==(11)r(11)--9-----9h11p=9-----9----------|-----------------|| 
|-----------------------------11----------11----11p=9----|-----------------|| 
|--------------------------------------------------------|-----------------|| 
|--------------------------------------------------------|-----------------|| 
| 
|  PM----------------------------------------|                          PM 
|  Q               Q              E     E     E     E      E E E E +Q   Q 
|--------------------------------------------------------|-----------------|| 
|--------------------------------------------------------|-7-7---9-(9)-----|| 
|--------------------------------------------------------|-7-7---9-(9)-----|| 
|--------------------------------------------------------|-7-7---9-(9)-----|| 
|---------------------------------------------------0----|-5-5---7-(7)-----|| 
|--x---------------x--------------x-----x-----x----------|--------------x--|| 
 
 
   Bridge 
    & 
    Gtr III 
    W          +W                      +W             W 
||--7--------|-(7)-------------------|-(7)----------|-------------------| 
||o-7--------|-(7)-------------------|-(7)----------|-------------------| 
||-----------|-----------------------|--------------|-------------------| 
||-----------|-----------------------|--------------|-------------------| 
||o----------|-----------------------|--------------|-------------------| 
||-----------|-----------------------|--------------|-------------------| 
||-Rhy Fill 1 
| 
|   Gtr I 
|               PM                              PM|                 PM 
|   W           E  E E E +E  E E S S    H.      E E   E E E E +E  E E E 
||-----------|-----------------------|--------------|-------7-(7)-7-----| 
||o----------|-----------------------|--------------|-------------7-----| 
||--9--------|-----6---6-(6)-6---6-6-|--9-----------|-9p8---------------| 
||--9--------|-----7---7-(7)-7---7-7-|--9-----------|-----9-----------9-| 
||o-9--------|--x--7---7-(7)-7---7-7-|--9-----------|-----------------9-| 
||--7--------|--x--5---5-(5)-5---5-5-|--7-------x-x-|---------------x-7-| 
 
  1. 
  H.      E E    E  Q   E +E  Q   E 
|-7---------7-|---------7-(7)-7---7----|| 
|-7-------7---|--7--7---7-(7)-7---7---o|| 
|-------------|------------------------|| end Rhy Fill 1 
|-------------|------------------------|| 
|-------------|-----------------------o|| 
|-------------|------------------------|| 
| 
|                     PM        PM 
| W             +Q    E E +Q    E S S 
|-------------|------------------------|| 
|-------------|-----------------------o|| 
|-8-----------|-(8)-----1-(1)-----8-8--|| 
|-9-----------|-(9)-----2-(2)-----9-9--|| 
|-9-----------|-(9)-----2-(2)-----9-9-o|| 
|-7-----------|-(7)---x-0-(0)---x-7-7--|| 
 
  2. 
   H     +E  E E E   +E   E E E +E  E E E 
|------------------|------------------------| 
|------------------|------------------------| 
|------------------|------------------------| 
|------------------|------------------------| 
|------------------|------------------------| 
|--7-----(7)-7-7-7-|-(7)--7-7-0-(0)-0-0-0---| 
| 
|                ~~~~~~~~     ~~~~~~ 
|  H.          E E   +E   E E E +H 
|------------------|------------------------| 
|------------------|------------------------| 
|--8---------------|------------------------| 
|--9-------------9-|-(9)--------------------| 
|--9---------------|-----11-9-7-(7)---------| 
|--7-----------x---|------------------------| 
 
                         Interlude 
                 2/4     4/4 
                       Gtr II 
  E E E E Q  Q    W       E E E E Q  E E   E E E E E E E E 
|---------------|------||----------------|-----------------|| 
|---------------|------||----------------|-0-0-------------|| 
|---------------|------||------------0-1-|-----0-1---------|| 
|---------------|------||---2------------|---------2-2-----|| 
|---------------|------||-----4-2--------|-------------4-2-|| 
|-0-0-0-0-0-----|------||-0--------------|-----------------|| 
                        |-Riff A                end Riff A-| 
 
w/Riff A x2 
  Gtr IV 
  H       E Q.         +H         E E E E 
|--------------------|--------------------| 
|--------------------|--------------------| 
|--------------------|------------0-------| 
|---------x-4b6======|=(4)r---------2-4---| 
|--------------------|------------------4-| 
|--------------------|--------------------| 
| 
| Gtr V 
| W                     q     E E E E E E 
|--------------------|--------------------| 
|--------------------|--------------------| 
|--------------------|--0-----------------| 
|--------------------|--0-----0-2-0-2-0-2-| 
|--------------------|--------------------| 
|--------------------|--------------------| 
 
 
  Q   Q        Q   E E   E     a E q   E E Q 
|----------------------|--------------------------| 
|----------------------|--------------------------| 
|----------------------|--------------------------| 
|-2---4b5.5----------0-|-----------0---0----------| 
|----------------------|-------0h2-------2-2b4====| 
|----------------------|--------------------------| 
| 
| ~ 
| Q   Q        E E E E   E       E q   E E E    E 
|----------------------|--------------------------| 
|----------------------|--------------------------| 
|----------------------|---------------0---0----1-| 
|-2--------------2-----|-4b5.5---2-0---0-2-0----2-| 
|-------------/4---4-2-|--------------------------| 
|----------------------|--------------------------| 
 
                                      ~~ 
  +Q     e e e e e   e   e e e e    e Q. 
|----------------------|----------------------------|| 
|--------3-3-3-3-3---3-|-3-3-3-3----3---------------|| 
|----------------------|----------------------------|| 
|----------------------|--------------2-------------|| 
|-(2)r-----------------|----------------------------|| 
|----------------------|----------------------------|| 
| 
| +E   E E E E E E   E   E E E E    e E  E     E 
|----------------------|----------------------------|| 
|----------------------|----------------------------|| 
|-(1)------------------|----------------------------|| 
|-(2)--x-2-x-2---------|----------------------------|| 
|--------------4p2---5-|---5s4-2--------------------|| 
|----------------------|------------3-3--3b3.5p0----|| 
| 
|  Q     E E E E E   E   E E E E    Q    E     E 
|----------------------|----------------------------|| 
|----------------------|----------------------------|| 
|----------------------|----------------------------|| 
|----------2-----------|-0--------------------------|| 
|------------4-2-------|----------------------------|| 
|--0-----0-------3b4-0-|---0-3-3pb4-0----3-----3pb4-|| 
 
 Guitar Solo 
w/Rhy Fig 2 
  Gtr VI 
                         ~~~~ 
  a    +Q    a     +Q   +H           E  E  E      E   E     E a    +E  +S  S 
|---------------------------------|------------------------------------------| 
|---------------------------------|------------------------------------------| 
|-2b4==(2)r=(2)b4==(2)--(2)r------|-----2-{2}pb4-{2}-{2}pb4-2-2b4==(2)r(2)p0-| 
|---------------------------------|------------------------------------------| 
|---------------------------------|------------------------------------------| 
|---------------------------------|------------------------------------------| 
 
            ~~             ~ 
  E E E E E Q.        E  e Q    E  E E E 
|------------------|---------------------| 
|------------------|-----------------5-7-| 
|------------------|------------4--6-----| 
|-2p0-----2-2------|-----5-5-------------| 
|------------------|-/7------------------| 
|-----3p0----------|---------------------| 
 
                                ~ 
  a    +Q    S a    +E. S E +S  Q      S  S S S e e  S    +S  E E. S   a     E   S S a      E   S  S  a       E   S  S  a       E    S  S 
|------------7----------7-----------|--------------------------------|--------------------------------------------------------------------| 
|-7b9==(7)r----7b9==(7)---7r(7)-5---|--5h=7p5---5-7--7pb8r(7)p5----5-|-------5---x-7--------7---x--8----------8---x-10---------10----x-12-| 
|-----------------------------------|---------6-----------------0----|-7b9==(7)r-x-9-9b11==(9)r-x-10-10b12==(10)r-x-12-12b14==(12)r--x-14-| 
|-----------------------------------|--------------------------------|--------------------------------------------------------------------| 
|-----------------------------------|--------------------------------|--------------------------------------------------------------------| 
|-----------------------------------|--------------------------------|--------------------------------------------------------------------| 
 
   a       E    S  S  a       E    S  S  a       E   S  S  a       Q 
|----------------------------------------------------------------------------| 
|---------12----x-14---------14----x-15---------15---x-17---------17---------| 
|-14b16==(14)r--x-16-16b18==(16)r--x-17-17b19==(17)r-x-19-19b21==(19)r-------| 
|----------------------------------------------------------------------------| 
|----------------------------------------------------------------------------| 
|----------------------------------------------------------------------------| 
 
w/Rhy Fig 3 
                                                              ~~~~~~~~~~~ 
  E   a      +Q     E  E      E  E      E      E      a      +Q.    +Q    E E 
|-------------------------------------------|-----------------------------------| 
|----15b17==(15)r--15-15pb17-15-15pb17-15---|-15pb17-15b17==(15)---(15)r--------| 
|-------------------------------------------|-----------------------------------| 
|-------------------------------------------|-----------------------------0-0---| 
|-------------------------------------------|-----------------------------------| 
|-------------------------------------------|-----------------------------------| 
 
                                                                          ~~~~~~~~~~~~~ 
   a      +E    E  E      E  E      E  E      a      +E     +E    a      +Q.      +E    E  E  E 
|-15b17==(15)r-15-15pb17-15-15pb17-15-15pb17-17b19==(17)-|-(17)r-17b19==(17)-----(17)r----15-17---| 
|--------------------------------------------------------|-----------------------------17---------| 
|--------------------------------------------------------|----------------------------------------| 
|--------------------------------------------------------|----------------------------------------| 
|--------------------------------------------------------|----------------------------------------| 
|--------------------------------------------------------|----------------------------------------| 
 
w/Rhy Fig 4 
                            ~~~~~~~~~~~~~~~ 
   Q       E  E  E  a      +Q.        +H          E   E  E  E 
|-17pb19--17-15-17-17b19==(17)-----|-(17)r--------------15-17---| 
|----------------------------------|-----------------17---------| 
|----------------------------------|--------------0-------------| 
|----------------------------------|----------------------------| 
|----------------------------------|----------------------------| 
|----------------------------------|----------------------------| 
 
   a      +Q     E  E  a      +H          +Q     +E      +E      +Q   Q 
|-17b19==(17)r--17-15------------------|------------------------------x------| 
|---------------------17b19==(17)------|-(17)r==(17)b19r(17)b19r(17)---------| 
|--------------------------------------|-------------------------------------| 
|--------------------------------------|-------------------------------------| 
|--------------------------------------|-------------------------------------| 
|--------------------------------------|-------------------------------------| 
 
          ~~ 
                                                 |---3----| 
   S  E.  Q   E  E  E   E    a  E.    S  +E   E  Q   Q    Q 
|-15p12--12--12----12--14-|-14s15----14-(14)-15S17--15---15-----| 
|---------------15--------|-------------------------------------| 
|-------------------------|-------------------------------------| 
|-------------------------|-------------------------------------| 
|-------------------------|-------------------------------------| 
|-------------------------|-------------------------------------| 
 
                                                                    ~~~~~~~~ 
   a      +Q     E      +E   Q    S  S  E     E      +E   +E       +E   +H 
|-22b24==(22)r--22b24==(22)-22---22-22-22r-|-22b24==(22)r(22)b24==(22)-(22)-----|| 
|------------------------------------------|------------------------------------|| 
|------------------------------------------|------------------------------------|| 
|------------------------------------------|------------------------------------|| 
|------------------------------------------|------------------------------------|| 
|------------------------------------------|------------------------------------|| 
 
 Bridge 
w/Rhy Fill 1 
    ~~~~~ 
   +H      Q   Q    W                     W 
|-(22)r-----------|---------------------|------------| 
|-----------------|---------------------|------------| 
|-----------------|---------------------|------------| 
|-----------------|---------------------|------------| 
|-----------------|---------------------|------------| 
|----------x\-----|---------------------|------------| 
| 
|                   PM            PM 
|   W               E E E E +E  E E S S   H.      q 
|-----------------|---------------------|------------| 
|-----------------|---------------------|------------| 
|---8-------------|---6---6-(6)-6---8-8-|-8-------0--| 
|---9-------------|---7---7-(7)-7---9-9-|-9----------| 
|---9-------------|-x-7---7-(7)-7---9-9-|-9----------| 
|---7-------------|-x-5---5-(5)-5-x-7-7-|-7----------| 
 
  Gtr I 
                                  ~~~~~~~~     ~~~~~~ 
  E E E E +E  E E S S   H.      E E   +E   E E E +H 
|-------7-(7)-7-------|-------------|-------------------|| 
|-------7-(7)-7-------|-------------|-------------------|| 
|-9p8-------------8-8-|-8-----------|-------------------|| 
|-----9-----------9-9-|-9---------9-|-(9)---------------|| 
|-----------------9-9-|-9-----------|-----11-9-7-(7)----|| 
|-----------------7-7-|-7-----------|-------------------|| 
 
 Verse 3 
  Gtr III 
   e  e  e  e  e    e  e  e    e  e  e  e  e  e  e  E 
|---------------------------|-------------------------| 
|---------------------------|-------------------------| 
|-13-13-13-13-13---13-13-13-|-13-13-13-13-13-13-13-12s| 
|-12-12-12-12-12---12-12-12-|-12-12-12-12-12-12-12-11s| 
|---------------------------|-------------------------| 
|---------------------------|-------------------------| 
|-Rhy Fill 2                           end Rhy Fill 2-| 
| 
| Gtr IV 
|  E  E  q     S S  E  E  e    E  E  E  E  E  E  Q 
|---------------------------|-------------------------| 
|---------------------------|-------------------------| 
|--------------0h1-----0h=1-|-------------------------| 
|--------------0-------0----|--------------2-----2----| 
|--------4------------------|--------4----------------| 
|--0--0---------------------|-----0-----0-----0-------| 
| 
| Gtr V 
|  Q     E  e  S S  E  E  e    E  E  E  E  E  E  E  E 
|---------------------------|-------------------------| 
|---------------------------|-----------------------0-| 
|--------------0h1-----0----|-----1--------1h=2-------| 
|----------------------0--2-|--------2-----0h=2-------| 
|--------4------------------|-----------2--------2----| 
|--0--------0---------------|-------------------------| 
 
w/Rhy Fill 2 x2 
   E  E  e    e  E  Q.          E  E  e  E  E     E  E      E 
|----------------------------|--------------------------------| 
|----------------------------|--------------------------------| 
|----------------1--1--------|--------------------------------| 
|-----2----------2--2--------|-----0-----0--------------------| 
|-----2----------------------|--------4-----4-----2-----------| 
|--------0----0--------------|-----------------------3b3.5--2-| 
| 
|  Q     q       e  E   Q       E  E  q     E     E  Q 
|----------------------------|--------------------------------| 
|----------------------------|--------------------------------| 
|----------------------------|--------------------------------| 
|--------4b5-----2--2---2----|-----9--7-----------------------| 
|----------------------------|--------------9b10--7-----------| 
|----------------------------|-----------------------9\-------| 
 
   E  E  E    E  q       S S  E    Q     E  E +E   E  E    E 
|-------------------------------|-----------------------------| 
|-------------------------------|-----------------------------| 
|----------------1-------0------|-----------------------------| 
|----------------0-------0h2----|-----------4-(4)-------------| 
|-------------------------------|-----------------------------| 
|--0--0--3b4--0-----------------|------------------0--3b4p=0--| 
| 
|  Q     E    E  S S  E  S S  E    E  E  E  E  E   E  E    E 
|-------------------------------|-----------------------------| 
|-------------------------------|-----------------------------| 
|----------------0h1-----0------|-----1--------1-----------4\-| 
|------------------------0h2----|--------2---------2----------| 
|--------4----------------------|-----------2---------2-------| 
|--0----------0-----------------|-----------------------------| 
 
 
   e  e  e  e  e  e  e  e    e    e  e  E  E      E   e    E 
|-------------------------|------------------------------------|| 
|-------------------------|----------------------15------------|| 
|-13-13-13-13-13-13-13-13-|-13---13-13-12S13-----13--12---13---|| 
|-12-12-12-12-12-12-12-12-|-12---12-12-11S12-----12--11---12---|| 
|-------------------------|------------------------------------|| 
|-------------------------|------------------------------------|| 
| 
|  E  E  E  e  E  E  E  E    E    E  E  E  E      Q. 
|-------------------------|------------------------------------|| 
|-------------------------|------------------------------------|| 
|--------------1--1-------|------------------------------------|| 
|--------4-----2--2-----0-|-------0----------------------------|| 
|--------4----------------|----------4--2----------------------|| 
|--0--0-----0-------------|----------------3b4----0------------|| 
| 
|                                                          ~~ 
|  E  E  e  E  e  e  e  E    E    E  E  E  E      E   E    E 
|-------------------------|------------------------------------|| 
|-------------------------|------------------------------------|| 
|-------------------------|------------------------------------|| 
|--------0--x-----0--2----|--4b5--4--2---------------------2---|| 
|--------------4--------2-|-------------4----------------------|| 
|-----x-------------------|----------------3b3.5--0---3b4------|| 
 
 
 Pre-Chorus 
  Gtrs I, II 
   Q   E E E E e E    E  E E E E E E E 
|------------------|-------------------| 
|------------------|-------------------| 
|--7---7-7-7-7-7---|-------------------| 
|--7---7-7-7-7-7---|--7--7-7-7-7-7-7-0-| 
|--5---5-5-5-5-5-0-|--7--7-7-7-7-7-7-0-| 
|------------------|--5--5-5-5-5-5-5---| 
| 
| Gtrs IV, V 
| +W                 +W 
|------------------|-------------------| 
|------------------|-------------------| 
|------------------|-------------------| 
|-(2)--------------|-(2)---------------| 
|------------------|-------------------| 
|-(0)--------------|-(0)---------------| 
 
                                                       D.S.S. al Dbl. Coda 
  E E E E E E E E   E E E E E E E E   E E E E E E E E 
|---------------7-|-7-7-7-7-7-7-7-7-|-7-7-7-7-7-7-7-7-|| 
|---------------7-|-7-7-7-7-7-7-7-7-|-7-7-7-7-7-7-7-7-|| 
|---------------9-|-9-9-9-9-9-9-9-8-|-8-8-8-8-8-8-8-8-|| 
|-5-5-5-5-5-5---9-|-9-9-9-9-9-9-9-9-|-9-9-9-9-9-9-9-9-|| 
|-5-5-5-5-5-5-x---|-----------------|-----------------|| 
|-3-3-3-3-3-3-x---|-----------------|-----------------|| 
 
   Out-Chorus 
    && 
    Gtrs I, II 
    E E Q  E E Q     E E Q  Q  Q    E E Q  E E E E   E E E E +E  E E S S  3x 
||-----------------|--------------|----------------|----------------------|| 
||o-----9------9\--|---5-5-----5--|-2-2-2--2-2-2---|---3-------------9-9-o|| 
||------9------9\--|---5-5-----5--|-2-2-2--2-2-2---|-2-2-------------9-9--|| 
||------9--9-9-9\--|---5-5-----5--|-2-2-2--2-2-2---|-0-0---2-(2)-----9-9--|| 
||o-7-7-7--7-7-7\--|---3-3-----3--|-0-0-0--0-0-0-0-|-0-0-0-2-(2)---0-7-7-o|| 
||--0-0----0-0-0---|-0------0-----|----------------|-----0-0-(0)-0-0------|| 
 |-Rhy Fig 5                                                end Rhy Fig 5-| 
 
w/Rhy Fig 5 
  Gtr III 
  W                W              W                 E  E  E  E  q      E  S  S 
|----------------|--------------|----------------|-12-12-12-12-12----/12-12-12-| 
|----------------|--------------|----------------|--x--x--x--x--x------x--x--x-| 
|----------------|--------------|----------------|--9--9--9--9--9-----/9--9--9-| 
|----------------|--------------|----------------|-----------------------------| 
|----------------|--------------|----------------|-----------------------------| 
|----------------|--------------|----------------|-----------------------------| 
 
    E  E  E  E   E  E   E  S  S    E  E   E  E  S  S   E  S  S  S  S 
|-/12-12-12-12-/12-12-/12-12-12-|-12-12-/12-12-12-12-/12-12-12-12-12-| 
|---x--x--x--x---x--x---x--x--x-|--x--x---x--x--x--x---x--x--x--x--x-| 
|--/9--9--9--9--/9--9--/9--9--9-|--9--9--/9--9--9--9--/9--9--9--9--9-| 
|-------------------------------|------------------------------------| 
|-------------------------------|------------------------------------| 
|-------------------------------|------------------------------------| 
| 
|   E  E  Q      E  E   E.    S    E  E   E  E  E      E  E     S  S 
|-------------------------------|------------------------------------| 
|---9-----9-------------9S====5-|--5--5---5--5--5------5--5--------2-| 
|---9-----9-------------9S====5-|--5--5---5--5--5------5--5-----x--2-| 
|---9--9--9-------------9S====5-|--5--5---5--5--5------5--5-----x--2-| 
|---7--7--7------7--7---7S====3-|--3--3---3--3--3------3--3-----x--0-| 
|------0---------0--0-----------|--3--3---3--3--3------3--3----------| 
|-Rhy Fig 6 
 
    E.    S  S  S  E  E  E   E  S  S    E  E  Q     E   E  E  S  S 
|-/12----12-12-12-12-12-12-/12-12-12-|-12-12-12---/12--12-12-12-12--| 
|---x-----x--x--x--x--x--x---x--x--x-|--x--x--x-----x---x--x--x--x--| 
|--/9-----9--9--9--9--9--9--/9--9--9-|--9--9--9----/9---9--9--9--9--| 
|------------------------------------|------------------------------| 
|------------------------------------|------------------------------| 
|------------------------------------|------------------------------| 
| 
|   E  E     Q        E  E   E  E       E  E  E E  +E   E  E  S  S 
|------------------------------------|------------------------------| 
|---2--2-----2--------2--2---2--2----|--7--7----9--(9)--9--9--9--9--| 
|---2--2-----2--------2--2---2--2----|--7--7----9--(9)--9--9--9--9--| 
|---2--2-----2--------2--2---2--2----|--7--7----9--(9)--9--9--9--9--| 
|---0--0-----0--------0--0---0--0----|--5--5--0-7--(7)--7--7--7--7--| 
|------------------------------------|------------------------------| 
                                                      end Rhy Fig 6-| 
 
w/Rhy Fig 6 to end 
   E  S  S  S  E  S  E  S  S  E  S  S    E  E  S  s  E  E  S S   E  E 
|-12s15-15-15s17-17-17S19-19-19-19-19-|-17S19-19-19-19-19-19---/19-19---| 
|--x-----x--x-----x--x--x--x--x--x--x-|--x--x--x--x--x--x--x-0---x--x---| 
|--9s12-12-12s14-14-14S16-16-16-16-16-|-14S16-16-16-16-16-16---/16-16---| 
|-------------------------------------|---------------------------------| 
|-------------------------------------|---------------------------------| 
|-------------------------------------|---------------------------------| 
 
   E  E  E  S  S   E  S  S  E  S  S     E  S  S   E.    S   E   E    E  E 
|-18S19-19-19-19-/19----19-19----19-|-/19-19-19-/19----19-/19------/19-------| 
|--x--x--x---------x--------x-------|---x--x--x---x---------x--------x-(0)---| 
|-15S16-16-------/16-16----16-16----|-/16-16-16-/16-------/16------/16-------| 
|-----------------------------------|--------------------------(0)-----------| 
|-----------------------------------|----------------------------------------| 
|-----------------------------------|----------------------------------------| 
 
    S  S  S  S  S  S  S  S  S  S  S  S  S  S  S  S 
||-15p12----15p12----15p12----15p12----15p12----15p-| 
||o-------12-------12-------12-------12-------12----| 
||--------------------------------------------------| 
||--------------------------------------------------| 
||o-------------------------------------------------| 
||--------------------------------------------------| 
 
   S  S  S  S  S  S  S  S  S  S  S  S  S  S  S  S 
|-12----15p12----15p12----15p12----15p12----15p12-| 
|----12-------12-------12-------12-------12-------| 
|-------------------------------------------------| 
|-------------------------------------------------| 
|-------------------------------------------------| 
|-------------------------------------------------| 
 
   S  S  S  S  S  S  S  S  S  S  S  S  S  S  S  S 
|----15p12----15p12----15p12----15p12----15p12-----|| 
|-12-------12-------12-------12-------12-------12-0|| 
|--------------------------------------------------|| 
|--------------------------------------------------|| 
|-------------------------------------------------o|| 
|--------------------------------------------------|| 
 
   S  S  S  S  S  S  S  S  S  S  S  S  S  S  E 
|-15p12----15p12----15p12----15p12----15p12----| 
|-------12-------12-------12-------12-------12-| 
|----------------------------------------------| 
|----------------------------------------------| 
|----------------------------------------------| 
|----------------------------------------------| 
 
   a      +H.              +E   +E 
|-15b17==(15)-------------(15)r(15)---| 
|-------------------------------------| 
|-------------------------------------| 
|-------------------------------------| 
|-------------------------------------| 
|-------------------------------------| 
 
   ~~~~~~~ 
   Q    Q   S  S  S  S  S  S  S  S 
|----------------------------------| 
|-12---12--12h15-15-15-15s17-17-17-| 
|----------------------------------| 
|----------------------------------| 
|----------------------------------| 
|----------------------------------| 
 
   S  S  S  S  S  S  S  S  S  S  S  S  E  E 
|--------------------------------------------------| 
|-17s19-19-19-19s20-20-20-20s22-22-22-22-22b24=====| 
|--------------------------------------------------| 
|--------------------------------------------------| 
|--------------------------------------------------| 
|--------------------------------------------------| 
 
   +Q      S  a      +E.   S  a      +E.     S  a      +E. 
|---------22--------------22----------------22----------------| 
|-(22)r------22b24==(22)r----22b24==(22)r------22b24==(22)r---| 
|-------------------------------------------------------------| 
|-------------------------------------------------------------| 
|-------------------------------------------------------------| 
|-------------------------------------------------------------| 
 
   a      +Q      S  a      +E.     S   a      +E.    S  E    +S 
|----------------22----------------22----------------22-----------*| 
|-22b24==(22)r------22b24==(22)r-------22b24==(22)------22r==(22)-*| 
|-----------------------------------------------------------------*| 
|-----------------------------------------------------------------*| 
|-----------------------------------------------------------------*| 
|-----------------------------------------------------------------*|
Composição de Lonesome Dave Peverett
Colaboração e revisão:
  • Eliakin sá
1.323 exibições
    • ½ Tom
    • A
    • Bb
    • B
    • C
    • Db
    • D
    • Eb
    • E
    • F
    • F#
    • G
    • Ab
  • Adicionar à lista

    0 comentários

    Ver todos os comentários

    Conseguiu tocar?

    0 Tocaram 0 Ainda não

    Grave um vídeo tocando Fool For The City e nos envie!

    00:00 / 00:00
    outros vídeos desta música
    repetir qualidade Automático
    Outros vídeos desta música
    00:00 / 00:00
    Automático

    Cifra Club Pro

    Aproveite o Cifra Club com benefícios exclusivos e sem anúncios
    Cifra Club Pro
    Aproveite o Cifra Club com benefícios exclusivos e sem anúncios
    OK