Cifra Club

Aprenda

Big Me

Foo Fighters

Tab de baixo: Principal
Já pensou em usar uma coleção de roupas do Cifra Club? Responda as perguntas abaixo e nos ajude nessa missão! →
Riff 1: Intro e Versos da Musica 
      
     C            Am                G             F
G|-------------------------------------------------------------------|
D|-----------2/5-----------------------------------------------------|
A|---3-0-3-------7-5-------5/7-5-------------------------------------| 4x)
E|-------------------5-----------8-5--3--3-3-3-5-3--1--1-1-1-1-1-1-1-|

Refrão:

   E          F              C
G|---------------------------------------------|
D|---------------------------------------------|
A|-7777777777-8888888888888--3-0-3-33-3-0-3-33-|
E|---------------------------------------------|

   E          F             F          G
G|-------------------------------------------------------|
D|-------------------------------------------------------|
A|-7777777777-8888888888888-8888888888-10-10-10-10-10-10-|
E|-------------------------------------------------------|

(Riff 1)

Riff 2:

     C        G     F       C         G
G|------------------------|--------------------|
D|------------------------|--------------------|
A|---3-0-3-33-------------|-3-0-3-33-----------|
E|------------3-33--1-11--|-----------33333333-|

(Riff 1) 2x 

(Refrão)

(Riff 1)
(Riff 2)

(Riff 1)
(Riff 2)

(Final Riff 2) 2x
Composição de Dave Grohl
Colaboração e revisão:
  • Renan Oliveira
8.142 exibições

0 comentários

Ver todos os comentários
00:00 / 00:00
Outros vídeos desta música
Repetir Qualidade Automático
Outros vídeos desta música
00:00 / 00:00
Automático

Cifra Club Pro

Aproveite o Cifra Club com benefícios exclusivos e sem anúncios
Cifra Club Pro
Aproveite o Cifra Club com benefícios exclusivos e sem anúncios
OK