Cifra Club

Aprenda

Bridge Burning

Foo Fighters

Tab de baixo: Principal
[Intro]

G|------------------------|
D|------------------------|
A|-----57575757-57--------| X4
E|-------------0--0-------|

[Verso]

G|------------------------|------------------------|
D|------------------------|------------------------|
A|--------Rest------------|-10\3333--------5555----| X2
E|------------------------|--------33335555--------|

G|----------------------------------------------------------------|
D|----------------------------------------------------------------|
A|-77-766-655-544-433-3--------55-577-766-655-544-433-3---------5-| X3
E|---------------------33-355-5-------------------------33-355-5--|

G|------------------------------------------------------------------|
D|------------------------------------------------------------------|
A|-77776666555544443333--------555577776666555544443333--------5555-| X1
E|---------------------33335555------------------------33335555-----|

[Pré-Refrão]

G|-----------------------------------------------------------------------|
D|-----------------------------------------------------------------------|
A|-333333333333333-0-000000000000000-3-333333333333333-5-555555566666666-|
E|-----------------------------------------------------------------------|

[Refrão]

G|-----------------------------------------------------------------------|
D|-----------------------------------------------------------------------|
A|----------------5-555555555555555-333333-----------333333--------------| X2
E|-00000000000000--------------------------0-0000000--------0-0000000----|

G|-----------------------------------|
D|-----------------------------------|
A|-333333-----------5555555555555566-|
E|--------0-0000000------------------|

G|----------------|
D|----------------|
A|--57575757-57---| X2
E|----------0--0--|

[Verso]

G|----------------------------------------------------------------|
D|----------------------------------------------------------------|
A|-77-766-655-544-433-3--------55-577-766-655-544-433-3---------5-| X1
E|---------------------33-355-5-------------------------33-355-5--|

G|------------------------------------------------------------------|
D|-----------------------------------------------------55557777-----|
A|-77776666555544443-33--------55557-776666555544443-33--------5555-| X1
E|---------------------33335555-------------------------------------|

[Pré-Refrão]

G|-----------------------------------------------------------------------|
D|-----------------------------------------------------------------------|
A|-333333333333333-0-000000000000000-3-333333333333333-5-555555566666666-|
E|-----------------------------------------------------------------------|

[Refrão]

G|-----------------------------------------------------------------------|
D|-----------------------------------------------------------------------|
A|----------------5-555555555555555-333333-----------333333--------------| X2
E|-00000000000000--------------------------0-0000000--------0-0000000----|

G|-----------------------------------|
D|-----------------------------------|
A|-333333-----------5555555555555566-|
E|--------0-0000000------------------|

G|----------------------------------------------------------------------|
D|----------------------------------------------------------------------|
A|-----------------------------------3333333333333333-55555555-66666666-| X2
E|-0000000000000000-2222222222222222------------------------------------|

G|----------------|
D|----------------|
A|--57575757-57---|
E|----------0--0--|

[Refrão]

G|-----------------------------------------------------------------------|
D|-----------------------------------------------------------------------|
A|----------------5-555555555555555-333333-----------333333--------------| X2
E|-00000000000000--------------------------0-0000000--------0-0000000----|

G|----------|
D|----------|
A|-57575757-| X12
E|----------|

G|----------------------------------------------------------------------|
D|----------------------------------------------------------------------|
A|-333333-----------333333------------333333-----------555555555555556\-|
E|--------0-0000000--------0-00000000--------0-0000000------------------|

[Final]

G|----------------|    |--------------------------------|
D|----------------|    |--------------------------------|
A|--57575757-57---| X2 |-57575757575757575757575757-57--|
E|----------0--0--|    |---------------------------0--0-|
Composição de Foo Fighters
Colaboração e revisão:
  • Gabriel Leite
31 exibições

0 comentários

Ver todos os comentários
00:00 / 00:00
Outros vídeos desta música
Repetir Qualidade Automático
Outros vídeos desta música
00:00 / 00:00
Automático

Cifra Club Pro

Aproveite o Cifra Club com benefícios exclusivos e sem anúncios
Cifra Club Pro
Aproveite o Cifra Club com benefícios exclusivos e sem anúncios
OK