Cifra Club

I Should Have Known

Foo Fighters

Cifra: Principal (violão e guitarra)
tom: F
Intro 4x:
E|------------------:
B|------------------:
G|--------0---------:
D|------------0-----:
A|----1-----------1-:
E|--3---3-------3---:

Verso:
E|-------------------------------------------------------------------|
B|-------------------------------------------------------------------|
G|--------0---------------0---------------2---------------2----------|
D|------------0---------------0-------1-------1---1---1-------1---1--|
A|----1-----------1---1-----------1-3---3-------3---3---3-------3----|
E|--3---3-------3---3---3-------3------------------------------------|

E|-------------------------------------------------------------------|
B|-------------------------------------------------------------------|
G|--------2---------------3---------------3---------------2h0------0-|   (2x)
D|----1-------1---1---0-------0---0---1-------1---1------------3-----|
A|--0---0-------0---1---1-------1---3---3-------3-----3----------3---|
E|--------------------------------------------------1---1------------|

(Guitarra 2)
E|--3-------------------------------8--------------------------------|
B|--3-------------------------------8--------------------------------|
G|--3-------------------------------8--------------------------------|
D|--5-------------------------------10-------------------------------|
A|-------------------------------------------------------------------|
E|-------------------------------------------------------------------|

E|--8---------------10--------------8---------------1----------------|
B|--6---------------8---------------8---------------1----------------|
G|--5---------------7---------------8---------------2----------------|   (2x)
D|----------------------------------10--------------3----------------|
A|-------------------------------------------------------------------|
E|-------------------------------------------------------------------|

Pré-Refrão:
E|----------------------------------------8--------------8---------|
B|----------------------------------------8--------------8---------|
G|--------0-------0-------0-----0---------0--------------0---------|
D|------0-------0-------0-----8------------------------------------|   (3x)
A|----1-------3-------5-----8---------7------7---7---7------7---7--|
E|--3-------5-------6---------------8---8------8---8---8------8----|

Refrão:
E|----------------------------------|
B|--------8---------------3---------|
G|--------8---------------3---------|   (2x)
D|----8---8---8---8-------5---------|
A|--6---6-------6-----5-------5---5-|
E|------------------3---3-------3---|

E|-------------------------------------------------|
B|-------------------------------------------------|
G|---------10-----------------5---5-5-5-5-5-5-5-5--|
D|----10---10---10---10---5---5---5-5-5-5-5-5-5-5--|
A|--8----8---------8----3---3-----3-3-3-3-3-3-3-3--|
E|-------------------------------------------------|
(Guitarra 1)
     G5  A5  Bb5  F5   C5
E|-------------------------|
B|-------------------------|
G|---------------10--------|
D|--5---7---8----10---10---|
A|--5---7---8----8----10---|
E|--3---5---6---------8----|
(Guitarra 2)
E|--3-----------1----------|
B|--3---1---3---1-----1----|
G|--3---2---3---2-----0----|
D|--5---1---0---3-----2----|
A|--5---0---1---3-----3----|
E|--3-----------1----------|

(Refrão)

(Guitarra 1)
     Eb5  G5  Eb5  G5  F5   C5
E|-----------------------------|
B|-----------------------------|
G|--8--------8--------10---5---|
D|--8----5---8----5---10---5---|
A|--6----5---6----5---8----3---|
E|-------3--------3------------|
(Guitarra 2)
E|-------3--------3------------|
B|--8----3---8----3---10---5---|
G|--8----3---8----3---10---5---|
D|--8----5---8----5---10---5---|
A|--6----5---6----5---8----3---|
E|-------3--------3------------|
00:00 / 00:00
Outros vídeos desta música
Repetir
Outros vídeos desta música
Composição de Foo Fighters
Colaboração e revisão:
  • Élison Duarte
19.698 exibições
  • Simplificar cifra
    • ½ Tom
    • A
    • Bb
    • B
    • C
    • Db
    • D
    • Eb
    • E
    • F
    • F#
    • G
    • Ab
  • Adicionar à lista

    0 comentários

    Ver todos os comentários

    Entre para oCifra Club PRO

    Tenha acesso a benefícios exclusivos no App e no Site

    • Chega de anúncios

    • Prioridade de compra em lançamentos

    • Mais recursos no app do Afinador

    • Atendimento Prioritário

    • Descontos nos produtos Cifra Club

    • Ajude a produzir mais conteúdo

    00:00 / 00:00

    Cifra Club Pro

    Aproveite o Cifra Club com benefícios exclusivos e sem anúncios
    Cifra Club Pro
    Aproveite o Cifra Club com benefícios exclusivos e sem anúncios
    OK